 0
SECTION
 2
HEADER
 9
$ACADVER
 1
AC1009
 0
ENDSEC
 0
SECTION
 2
ENTITIES
 0
POLYLINE
 8
TITLE
 66
1
 70
1
 10
0.0
 20
0.0
 30
0.0
 0
VERTEX
 8
TITLE
 10
 -0.1000
 20
  0.1000
 30
0.0
 0
VERTEX
 8
TITLE
 10
  9.6000
 20
  0.1000
 30
0.0
 0
VERTEX
 8
TITLE
 10
  9.6000
 20
  7.3000
 30
0.0
 0
VERTEX
 8
TITLE
 10
 -0.1000
 20
  7.3000
 30
0.0
 0
SEQEND
 8
TITLE
 0
POLYLINE
 8
TITLE
 66
1
 70
1
 10
0.0
 20
0.0
 30
0.0
 0
VERTEX
 8
TITLE
 10
  0.0000
 20
  0.2000
 30
0.0
 0
VERTEX
 8
TITLE
 10
  9.5000
 20
  0.2000
 30
0.0
 0
VERTEX
 8
TITLE
 10
  9.5000
 20
  7.2000
 30
0.0
 0
VERTEX
 8
TITLE
 10
  0.0000
 20
  7.2000
 30
0.0
 0
SEQEND
 8
TITLE
 0
POLYLINE
 8
TITLE
 66
1
 10
0.0
 20
0.0
 30
0.0
 0
VERTEX
 8
TITLE
 10
  1.3600
 20
  0.2000
 30
0.0
 0
VERTEX
 8
TITLE
 10
  1.3600
 20
  0.1000
 30
0.0
 0
SEQEND
 8
TITLE
 0
POLYLINE
 8
TITLE
 66
1
 10
0.0
 20
0.0
 30
0.0
 0
VERTEX
 8
TITLE
 10
  1.3600
 20
  7.2000
 30
0.0
 0
VERTEX
 8
TITLE
 10
  1.3600
 20
  7.3000
 30
0.0
 0
SEQEND
 8
TITLE
 0
SOLID
 8
TITLE
 10
  4.8400
 20
  0.2000
 30
0.0
 11
  4.8200
 21
  0.1500
 31
0.0
 12
  4.8600
 22
  0.1500
 32
0.0
 13
  4.8400
 23
  0.1500
 33
0.0
 0
SOLID
 8
TITLE
 10
  4.8400
 20
  7.2000
 30
0.0
 11
  4.8200
 21
  7.2500
 31
0.0
 12
  4.8600
 22
  7.2500
 32
0.0
 13
  4.8400
 23
  7.2500
 33
0.0
 0
POLYLINE
 8
TITLE
 66
1
 10
0.0
 20
0.0
 30
0.0
 0
VERTEX
 8
TITLE
 10
  2.5200
 20
  0.2000
 30
0.0
 0
VERTEX
 8
TITLE
 10
  2.5200
 20
  0.1000
 30
0.0
 0
SEQEND
 8
TITLE
 0
POLYLINE
 8
TITLE
 66
1
 10
0.0
 20
0.0
 30
0.0
 0
VERTEX
 8
TITLE
 10
  2.5200
 20
  7.2000
 30
0.0
 0
VERTEX
 8
TITLE
 10
  2.5200
 20
  7.3000
 30
0.0
 0
SEQEND
 8
TITLE
 0
SOLID
 8
TITLE
 10
  4.8400
 20
  0.2000
 30
0.0
 11
  4.8200
 21
  0.1500
 31
0.0
 12
  4.8600
 22
  0.1500
 32
0.0
 13
  4.8400
 23
  0.1500
 33
0.0
 0
SOLID
 8
TITLE
 10
  4.8400
 20
  7.2000
 30
0.0
 11
  4.8200
 21
  7.2500
 31
0.0
 12
  4.8600
 22
  7.2500
 32
0.0
 13
  4.8400
 23
  7.2500
 33
0.0
 0
POLYLINE
 8
TITLE
 66
1
 10
0.0
 20
0.0
 30
0.0
 0
VERTEX
 8
TITLE
 10
  3.6800
 20
  0.2000
 30
0.0
 0
VERTEX
 8
TITLE
 10
  3.6800
 20
  0.1000
 30
0.0
 0
SEQEND
 8
TITLE
 0
POLYLINE
 8
TITLE
 66
1
 10
0.0
 20
0.0
 30
0.0
 0
VERTEX
 8
TITLE
 10
  3.6800
 20
  7.2000
 30
0.0
 0
VERTEX
 8
TITLE
 10
  3.6800
 20
  7.3000
 30
0.0
 0
SEQEND
 8
TITLE
 0
SOLID
 8
TITLE
 10
  4.8400
 20
  0.2000
 30
0.0
 11
  4.8200
 21
  0.1500
 31
0.0
 12
  4.8600
 22
  0.1500
 32
0.0
 13
  4.8400
 23
  0.1500
 33
0.0
 0
SOLID
 8
TITLE
 10
  4.8400
 20
  7.2000
 30
0.0
 11
  4.8200
 21
  7.2500
 31
0.0
 12
  4.8600
 22
  7.2500
 32
0.0
 13
  4.8400
 23
  7.2500
 33
0.0
 0
POLYLINE
 8
TITLE
 66
1
 10
0.0
 20
0.0
 30
0.0
 0
VERTEX
 8
TITLE
 10
  4.8400
 20
  0.2000
 30
0.0
 0
VERTEX
 8
TITLE
 10
  4.8400
 20
  0.1000
 30
0.0
 0
SEQEND
 8
TITLE
 0
POLYLINE
 8
TITLE
 66
1
 10
0.0
 20
0.0
 30
0.0
 0
VERTEX
 8
TITLE
 10
  4.8400
 20
  7.2000
 30
0.0
 0
VERTEX
 8
TITLE
 10
  4.8400
 20
  7.3000
 30
0.0
 0
SEQEND
 8
TITLE
 0
SOLID
 8
TITLE
 10
  4.8400
 20
  0.2000
 30
0.0
 11
  4.8200
 21
  0.1500
 31
0.0
 12
  4.8600
 22
  0.1500
 32
0.0
 13
  4.8400
 23
  0.1500
 33
0.0
 0
SOLID
 8
TITLE
 10
  4.8400
 20
  7.2000
 30
0.0
 11
  4.8200
 21
  7.2500
 31
0.0
 12
  4.8600
 22
  7.2500
 32
0.0
 13
  4.8400
 23
  7.2500
 33
0.0
 0
POLYLINE
 8
TITLE
 66
1
 10
0.0
 20
0.0
 30
0.0
 0
VERTEX
 8
TITLE
 10
  6.0000
 20
  0.2000
 30
0.0
 0
VERTEX
 8
TITLE
 10
  6.0000
 20
  0.1000
 30
0.0
 0
SEQEND
 8
TITLE
 0
POLYLINE
 8
TITLE
 66
1
 10
0.0
 20
0.0
 30
0.0
 0
VERTEX
 8
TITLE
 10
  6.0000
 20
  7.2000
 30
0.0
 0
VERTEX
 8
TITLE
 10
  6.0000
 20
  7.3000
 30
0.0
 0
SEQEND
 8
TITLE
 0
SOLID
 8
TITLE
 10
  4.8400
 20
  0.2000
 30
0.0
 11
  4.8200
 21
  0.1500
 31
0.0
 12
  4.8600
 22
  0.1500
 32
0.0
 13
  4.8400
 23
  0.1500
 33
0.0
 0
SOLID
 8
TITLE
 10
  4.8400
 20
  7.2000
 30
0.0
 11
  4.8200
 21
  7.2500
 31
0.0
 12
  4.8600
 22
  7.2500
 32
0.0
 13
  4.8400
 23
  7.2500
 33
0.0
 0
POLYLINE
 8
TITLE
 66
1
 10
0.0
 20
0.0
 30
0.0
 0
VERTEX
 8
TITLE
 10
  7.1600
 20
  0.2000
 30
0.0
 0
VERTEX
 8
TITLE
 10
  7.1600
 20
  0.1000
 30
0.0
 0
SEQEND
 8
TITLE
 0
POLYLINE
 8
TITLE
 66
1
 10
0.0
 20
0.0
 30
0.0
 0
VERTEX
 8
TITLE
 10
  7.1600
 20
  7.2000
 30
0.0
 0
VERTEX
 8
TITLE
 10
  7.1600
 20
  7.3000
 30
0.0
 0
SEQEND
 8
TITLE
 0
SOLID
 8
TITLE
 10
  4.8400
 20
  0.2000
 30
0.0
 11
  4.8200
 21
  0.1500
 31
0.0
 12
  4.8600
 22
  0.1500
 32
0.0
 13
  4.8400
 23
  0.1500
 33
0.0
 0
SOLID
 8
TITLE
 10
  4.8400
 20
  7.2000
 30
0.0
 11
  4.8200
 21
  7.2500
 31
0.0
 12
  4.8600
 22
  7.2500
 32
0.0
 13
  4.8400
 23
  7.2500
 33
0.0
 0
POLYLINE
 8
TITLE
 66
1
 10
0.0
 20
0.0
 30
0.0
 0
VERTEX
 8
TITLE
 10
  8.3200
 20
  0.2000
 30
0.0
 0
VERTEX
 8
TITLE
 10
  8.3200
 20
  0.1000
 30
0.0
 0
SEQEND
 8
TITLE
 0
POLYLINE
 8
TITLE
 66
1
 10
0.0
 20
0.0
 30
0.0
 0
VERTEX
 8
TITLE
 10
  8.3200
 20
  7.2000
 30
0.0
 0
VERTEX
 8
TITLE
 10
  8.3200
 20
  7.3000
 30
0.0
 0
SEQEND
 8
TITLE
 0
SOLID
 8
TITLE
 10
  4.8400
 20
  0.2000
 30
0.0
 11
  4.8200
 21
  0.1500
 31
0.0
 12
  4.8600
 22
  0.1500
 32
0.0
 13
  4.8400
 23
  0.1500
 33
0.0
 0
SOLID
 8
TITLE
 10
  4.8400
 20
  7.2000
 30
0.0
 11
  4.8200
 21
  7.2500
 31
0.0
 12
  4.8600
 22
  7.2500
 32
0.0
 13
  4.8400
 23
  7.2500
 33
0.0
 0
TEXT
 8
TITLE
 10
  0.7800
 20
  0.1200
 30
0.0
 40
  0.0500
 1
8
 0
TEXT
 8
TITLE
 10
  0.7800
 20
  7.2200
 30
0.0
 40
  0.0500
 1
8
 0
TEXT
 8
TITLE
 10
  1.9400
 20
  0.1200
 30
0.0
 40
  0.0500
 1
7
 0
TEXT
 8
TITLE
 10
  1.9400
 20
  7.2200
 30
0.0
 40
  0.0500
 1
7
 0
TEXT
 8
TITLE
 10
  3.1000
 20
  0.1200
 30
0.0
 40
  0.0500
 1
6
 0
TEXT
 8
TITLE
 10
  3.1000
 20
  7.2200
 30
0.0
 40
  0.0500
 1
6
 0
TEXT
 8
TITLE
 10
  4.2600
 20
  0.1200
 30
0.0
 40
  0.0500
 1
5
 0
TEXT
 8
TITLE
 10
  4.2600
 20
  7.2200
 30
0.0
 40
  0.0500
 1
5
 0
TEXT
 8
TITLE
 10
  5.4200
 20
  0.1200
 30
0.0
 40
  0.0500
 1
4
 0
TEXT
 8
TITLE
 10
  5.4200
 20
  7.2200
 30
0.0
 40
  0.0500
 1
4
 0
TEXT
 8
TITLE
 10
  6.5800
 20
  0.1200
 30
0.0
 40
  0.0500
 1
3
 0
TEXT
 8
TITLE
 10
  6.5800
 20
  7.2200
 30
0.0
 40
  0.0500
 1
3
 0
TEXT
 8
TITLE
 10
  7.7400
 20
  0.1200
 30
0.0
 40
  0.0500
 1
2
 0
TEXT
 8
TITLE
 10
  7.7400
 20
  7.2200
 30
0.0
 40
  0.0500
 1
2
 0
TEXT
 8
TITLE
 10
  8.9000
 20
  0.1200
 30
0.0
 40
  0.0500
 1
1
 0
TEXT
 8
TITLE
 10
  8.9000
 20
  7.2200
 30
0.0
 40
  0.0500
 1
1
 0
POLYLINE
 8
TITLE
 66
1
 10
0.0
 20
0.0
 30
0.0
 0
VERTEX
 8
TITLE
 10
 -0.1000
 20
  5.3000
 30
0.0
 0
VERTEX
 8
TITLE
 10
  0.0000
 20
  5.3000
 30
0.0
 0
SEQEND
 8
TITLE
 0
POLYLINE
 8
TITLE
 66
1
 10
0.0
 20
0.0
 30
0.0
 0
VERTEX
 8
TITLE
 10
  9.5000
 20
  5.3000
 30
0.0
 0
VERTEX
 8
TITLE
 10
  9.6000
 20
  5.3000
 30
0.0
 0
SEQEND
 8
TITLE
 0
SOLID
 8
TITLE
 10
  0.0000
 20
  3.6000
 30
0.0
 11
 -0.0500
 21
  3.6200
 31
0.0
 12
 -0.0500
 22
  3.5800
 32
0.0
 13
 -0.0500
 23
  3.6000
 33
0.0
 0
SOLID
 8
TITLE
 10
  9.5000
 20
  3.6000
 30
0.0
 11
  9.5500
 21
  3.6200
 31
0.0
 12
  9.5500
 22
  3.5800
 32
0.0
 13
  9.5500
 23
  3.6000
 33
0.0
 0
POLYLINE
 8
TITLE
 66
1
 10
0.0
 20
0.0
 30
0.0
 0
VERTEX
 8
TITLE
 10
 -0.1000
 20
  3.6000
 30
0.0
 0
VERTEX
 8
TITLE
 10
  0.0000
 20
  3.6000
 30
0.0
 0
SEQEND
 8
TITLE
 0
POLYLINE
 8
TITLE
 66
1
 10
0.0
 20
0.0
 30
0.0
 0
VERTEX
 8
TITLE
 10
  9.5000
 20
  3.6000
 30
0.0
 0
VERTEX
 8
TITLE
 10
  9.6000
 20
  3.6000
 30
0.0
 0
SEQEND
 8
TITLE
 0
SOLID
 8
TITLE
 10
  0.0000
 20
  3.6000
 30
0.0
 11
 -0.0500
 21
  3.6200
 31
0.0
 12
 -0.0500
 22
  3.5800
 32
0.0
 13
 -0.0500
 23
  3.6000
 33
0.0
 0
SOLID
 8
TITLE
 10
  9.5000
 20
  3.6000
 30
0.0
 11
  9.5500
 21
  3.6200
 31
0.0
 12
  9.5500
 22
  3.5800
 32
0.0
 13
  9.5500
 23
  3.6000
 33
0.0
 0
POLYLINE
 8
TITLE
 66
1
 10
0.0
 20
0.0
 30
0.0
 0
VERTEX
 8
TITLE
 10
 -0.1000
 20
  1.9000
 30
0.0
 0
VERTEX
 8
TITLE
 10
  0.0000
 20
  1.9000
 30
0.0
 0
SEQEND
 8
TITLE
 0
POLYLINE
 8
TITLE
 66
1
 10
0.0
 20
0.0
 30
0.0
 0
VERTEX
 8
TITLE
 10
  9.5000
 20
  1.9000
 30
0.0
 0
VERTEX
 8
TITLE
 10
  9.6000
 20
  1.9000
 30
0.0
 0
SEQEND
 8
TITLE
 0
SOLID
 8
TITLE
 10
  0.0000
 20
  3.6000
 30
0.0
 11
 -0.0500
 21
  3.6200
 31
0.0
 12
 -0.0500
 22
  3.5800
 32
0.0
 13
 -0.0500
 23
  3.6000
 33
0.0
 0
SOLID
 8
TITLE
 10
  9.5000
 20
  3.6000
 30
0.0
 11
  9.5500
 21
  3.6200
 31
0.0
 12
  9.5500
 22
  3.5800
 32
0.0
 13
  9.5500
 23
  3.6000
 33
0.0
 0
TEXT
 8
TITLE
 10
 -0.0800
 20
  6.1500
 30
0.0
 40
  0.0500
 1
D
 0
TEXT
 8
TITLE
 10
  9.5200
 20
  6.1500
 30
0.0
 40
  0.0500
 1
D
 0
TEXT
 8
TITLE
 10
 -0.0800
 20
  4.4500
 30
0.0
 40
  0.0500
 1
C
 0
TEXT
 8
TITLE
 10
  9.5200
 20
  4.4500
 30
0.0
 40
  0.0500
 1
C
 0
TEXT
 8
TITLE
 10
 -0.0800
 20
  2.7500
 30
0.0
 40
  0.0500
 1
B
 0
TEXT
 8
TITLE
 10
  9.5200
 20
  2.7500
 30
0.0
 40
  0.0500
 1
B
 0
TEXT
 8
TITLE
 10
 -0.0800
 20
  1.0500
 30
0.0
 40
  0.0500
 1
A
 0
TEXT
 8
TITLE
 10
  9.5200
 20
  1.0500
 30
0.0
 40
  0.0500
 1
A
 0
TEXT
 8
TITLE
 10
  6.2000
 20
  0.4186
 30
0.0
 40
  0.0514
 1
CLOCK DIVIDER
 0
TEXT
 8
TITLE
 10
  6.2000
 20
  0.7186
 30
0.0
 40
  0.0514
 1
DDS CONTROLLER
 0
TEXT
 8
TITLE
 10
  5.8000
 20
  1.3186
 30
0.0
 40
  0.0514
 1
ARECIBO OBSERVATORY
 0
TEXT
 8
TITLE
 10
  5.8000
 20
  1.1186
 30
0.0
 40
  0.0514
 1
BY : BILL SISK
 0
TEXT
 8
TITLE
 10
  5.8000
 20
  1.0186
 30
0.0
 40
  0.0514
 1
FILE : DDS3.SCH
 0
TEXT
 8
TITLE
 10
  5.9000
 20
  0.4186
 30
0.0
 40
  0.0514
 1
A
 0
TEXT
 8
TITLE
 10
  8.3000
 20
  0.2186
 30
0.0
 40
  0.0514
 1
1
 0
TEXT
 8
TITLE
 10
  8.9000
 20
  0.2186
 30
0.0
 40
  0.0514
 1
1
 0
TEXT
 8
TITLE
 10
  6.2100
 20
  0.2186
 30
0.0
 40
  0.0514
 1
Friday, March 11, 2005
 0
TEXT
 8
PARTTEXT
 10
  5.8000
 20
  0.8186
 30
0.0
 40
  0.0514
 1
Title
 0
TEXT
 8
PARTTEXT
 10
  5.8000
 20
  0.5186
 30
0.0
 40
  0.0514
 1
Size
 0
TEXT
 8
PARTTEXT
 10
  6.2000
 20
  0.5186
 30
0.0
 40
  0.0514
 1
Document Number
 0
TEXT
 8
PARTTEXT
 10
  9.1000
 20
  0.5186
 30
0.0
 40
  0.0514
 1
Rev
 0
TEXT
 8
PARTTEXT
 10
  5.8000
 20
  0.2186
 30
0.0
 40
  0.0514
 1
Date:
 0
TEXT
 8
PARTTEXT
 10
  7.8000
 20
  0.2186
 30
0.0
 40
  0.0514
 1
Sheet
 0
POLYLINE
 8
TITLE
 66
1
 70
1
 10
0.0
 20
0.0
 30
0.0
 0
VERTEX
 8
TITLE
 10
  5.8000
 20
  1.4000
 30
0.0
 0
VERTEX
 8
TITLE
 10
  9.4000
 20
  1.4000
 30
0.0
 0
VERTEX
 8
TITLE
 10
  9.4000
 20
  0.9000
 30
0.0
 0
VERTEX
 8
TITLE
 10
  5.8000
 20
  0.9000
 30
0.0
 0
SEQEND
 8
TITLE
 0
POLYLINE
 8
TITLE
 66
1
 70
1
 10
0.0
 20
0.0
 30
0.0
 0
VERTEX
 8
TITLE
 10
  5.8000
 20
  0.9000
 30
0.0
 0
VERTEX
 8
TITLE
 10
  9.4000
 20
  0.9000
 30
0.0
 0
VERTEX
 8
TITLE
 10
  9.4000
 20
  0.6000
 30
0.0
 0
VERTEX
 8
TITLE
 10
  5.8000
 20
  0.6000
 30
0.0
 0
SEQEND
 8
TITLE
 0
POLYLINE
 8
TITLE
 66
1
 70
1
 10
0.0
 20
0.0
 30
0.0
 0
VERTEX
 8
TITLE
 10
  5.8000
 20
  0.6000
 30
0.0
 0
VERTEX
 8
TITLE
 10
  6.1000
 20
  0.6000
 30
0.0
 0
VERTEX
 8
TITLE
 10
  6.1000
 20
  0.3000
 30
0.0
 0
VERTEX
 8
TITLE
 10
  5.8000
 20
  0.3000
 30
0.0
 0
SEQEND
 8
TITLE
 0
POLYLINE
 8
TITLE
 66
1
 70
1
 10
0.0
 20
0.0
 30
0.0
 0
VERTEX
 8
TITLE
 10
  6.1000
 20
  0.6000
 30
0.0
 0
VERTEX
 8
TITLE
 10
  9.1000
 20
  0.6000
 30
0.0
 0
VERTEX
 8
TITLE
 10
  9.1000
 20
  0.3000
 30
0.0
 0
VERTEX
 8
TITLE
 10
  6.1000
 20
  0.3000
 30
0.0
 0
SEQEND
 8
TITLE
 0
POLYLINE
 8
TITLE
 66
1
 70
1
 10
0.0
 20
0.0
 30
0.0
 0
VERTEX
 8
TITLE
 10
  9.1000
 20
  0.6000
 30
0.0
 0
VERTEX
 8
TITLE
 10
  9.4000
 20
  0.6000
 30
0.0
 0
VERTEX
 8
TITLE
 10
  9.4000
 20
  0.3000
 30
0.0
 0
VERTEX
 8
TITLE
 10
  9.1000
 20
  0.3000
 30
0.0
 0
SEQEND
 8
TITLE
 0
POLYLINE
 8
TITLE
 66
1
 70
1
 10
0.0
 20
0.0
 30
0.0
 0
VERTEX
 8
TITLE
 10
  5.8000
 20
  0.3000
 30
0.0
 0
VERTEX
 8
TITLE
 10
  7.8000
 20
  0.3000
 30
0.0
 0
VERTEX
 8
TITLE
 10
  7.8000
 20
  0.2000
 30
0.0
 0
VERTEX
 8
TITLE
 10
  5.8000
 20
  0.2000
 30
0.0
 0
SEQEND
 8
TITLE
 0
POLYLINE
 8
TITLE
 66
1
 70
1
 10
0.0
 20
0.0
 30
0.0
 0
VERTEX
 8
TITLE
 10
  7.8000
 20
  0.3000
 30
0.0
 0
VERTEX
 8
TITLE
 10
  9.4000
 20
  0.3000
 30
0.0
 0
VERTEX
 8
TITLE
 10
  9.4000
 20
  0.2000
 30
0.0
 0
VERTEX
 8
TITLE
 10
  7.8000
 20
  0.2000
 30
0.0
 0
SEQEND
 8
TITLE
 0
TEXT
 8
PARTTEXT
 10
  8.6000
 20
  0.2186
 30
0.0
 40
  0.0514
 1
of
 0
TEXT
 8
PARTTEXT
 10
  8.3500
 20
  6.0086
 30
0.0
 40
  0.0514
 1
J2
 0
TEXT
 8
PARTTEXT
 10
  8.3500
 20
  4.8086
 30
0.0
 40
  0.0514
 1
CON10
 0
LINE
 8
PARTS
 10
  8.2000
 20
  5.9000
 30
0.0
 11
  8.3000
 21
  5.9000
 31
0.0
 0
TEXT
 8
PARTS
 10
  8.3900
 20
  5.8750
 30
0.0
 40
  0.0500
 1
1
 0
TEXT
 8
PARTS
 10
  8.2400
 20
  5.9300
 30
0.0
 40
  0.0500
 1

 0
LINE
 8
PARTS
 10
  8.2000
 20
  5.8000
 30
0.0
 11
  8.3000
 21
  5.8000
 31
0.0
 0
TEXT
 8
PARTS
 10
  8.3900
 20
  5.7750
 30
0.0
 40
  0.0500
 1
2
 0
TEXT
 8
PARTS
 10
  8.2400
 20
  5.8300
 30
0.0
 40
  0.0500
 1

 0
LINE
 8
PARTS
 10
  8.2000
 20
  5.7000
 30
0.0
 11
  8.3000
 21
  5.7000
 31
0.0
 0
TEXT
 8
PARTS
 10
  8.3900
 20
  5.6750
 30
0.0
 40
  0.0500
 1
3
 0
TEXT
 8
PARTS
 10
  8.2400
 20
  5.7300
 30
0.0
 40
  0.0500
 1

 0
LINE
 8
PARTS
 10
  8.2000
 20
  5.6000
 30
0.0
 11
  8.3000
 21
  5.6000
 31
0.0
 0
TEXT
 8
PARTS
 10
  8.3900
 20
  5.5750
 30
0.0
 40
  0.0500
 1
4
 0
TEXT
 8
PARTS
 10
  8.2400
 20
  5.6300
 30
0.0
 40
  0.0500
 1

 0
LINE
 8
PARTS
 10
  8.2000
 20
  5.5000
 30
0.0
 11
  8.3000
 21
  5.5000
 31
0.0
 0
TEXT
 8
PARTS
 10
  8.3900
 20
  5.4750
 30
0.0
 40
  0.0500
 1
5
 0
TEXT
 8
PARTS
 10
  8.2400
 20
  5.5300
 30
0.0
 40
  0.0500
 1

 0
LINE
 8
PARTS
 10
  8.2000
 20
  5.4000
 30
0.0
 11
  8.3000
 21
  5.4000
 31
0.0
 0
TEXT
 8
PARTS
 10
  8.3900
 20
  5.3750
 30
0.0
 40
  0.0500
 1
6
 0
TEXT
 8
PARTS
 10
  8.2400
 20
  5.4300
 30
0.0
 40
  0.0500
 1

 0
LINE
 8
PARTS
 10
  8.2000
 20
  5.3000
 30
0.0
 11
  8.3000
 21
  5.3000
 31
0.0
 0
TEXT
 8
PARTS
 10
  8.3900
 20
  5.2750
 30
0.0
 40
  0.0500
 1
7
 0
TEXT
 8
PARTS
 10
  8.2400
 20
  5.3300
 30
0.0
 40
  0.0500
 1

 0
LINE
 8
PARTS
 10
  8.2000
 20
  5.2000
 30
0.0
 11
  8.3000
 21
  5.2000
 31
0.0
 0
TEXT
 8
PARTS
 10
  8.3900
 20
  5.1750
 30
0.0
 40
  0.0500
 1
8
 0
TEXT
 8
PARTS
 10
  8.2400
 20
  5.2300
 30
0.0
 40
  0.0500
 1

 0
LINE
 8
PARTS
 10
  8.2000
 20
  5.1000
 30
0.0
 11
  8.3000
 21
  5.1000
 31
0.0
 0
TEXT
 8
PARTS
 10
  8.3900
 20
  5.0750
 30
0.0
 40
  0.0500
 1
9
 0
TEXT
 8
PARTS
 10
  8.2400
 20
  5.1300
 30
0.0
 40
  0.0500
 1

 0
LINE
 8
PARTS
 10
  8.2000
 20
  5.0000
 30
0.0
 11
  8.3000
 21
  5.0000
 31
0.0
 0
TEXT
 8
PARTS
 10
  8.3900
 20
  4.9750
 30
0.0
 40
  0.0500
 1
10
 0
TEXT
 8
PARTS
 10
  8.2400
 20
  5.0300
 30
0.0
 40
  0.0500
 1

 0
POLYLINE
 8
PARTS
 66
1
 70
1
 10
0.0
 20
0.0
 30
0.0
 0
VERTEX
 8
PARTS
 10
  8.3000
 20
  6.0000
 30
0.0
 0
VERTEX
 8
PARTS
 10
  8.6000
 20
  6.0000
 30
0.0
 0
VERTEX
 8
PARTS
 10
  8.6000
 20
  4.9000
 30
0.0
 0
VERTEX
 8
PARTS
 10
  8.3000
 20
  4.9000
 30
0.0
 0
SEQEND
 8
PARTS
 0
TEXT
 8
PARTTEXT
 10
  8.1900
 20
  3.9186
 30
0.0
 40
  0.0514
 1
C4
 0
TEXT
 8
PARTTEXT
 10
  8.1400
 20
  4.0286
 30
0.0
 40
  0.0514
 1
.01u
 0
LINE
 8
PARTS
 10
  8.0000
 20
  3.8000
 30
0.0
 11
  8.0000
 21
  3.9000
 31
0.0
 0
TEXT
 8
PARTS
 10
  7.9700
 20
  3.7800
 30
0.0
 40
  0.0500
 50
 90.0000
 1
1
 0
LINE
 8
PARTS
 10
  8.0000
 20
  4.2000
 30
0.0
 11
  8.0000
 21
  4.1000
 31
0.0
 0
TEXT
 8
PARTS
 10
  7.9700
 20
  4.1600
 30
0.0
 40
  0.0500
 50
 90.0000
 1
2
 0
POLYLINE
 8
PARTS
 66
1
 10
0.0
 20
0.0
 30
0.0
 0
VERTEX
 8
PARTS
 10
  8.0000
 20
  4.0400
 30
0.0
 0
VERTEX
 8
PARTS
 10
  8.0000
 20
  4.1000
 30
0.0
 0
SEQEND
 8
PARTS
 0
POLYLINE
 8
PARTS
 66
1
 10
0.0
 20
0.0
 30
0.0
 0
VERTEX
 8
PARTS
 10
  7.9000
 20
  4.0000
 30
0.0
 0
VERTEX
 8
PARTS
 10
  8.1000
 20
  4.0000
 30
0.0
 0
SEQEND
 8
PARTS
 0
POLYLINE
 8
PARTS
 66
1
 10
0.0
 20
0.0
 30
0.0
 0
VERTEX
 8
PARTS
 10
  8.0000
 20
  3.9000
 30
0.0
 0
VERTEX
 8
PARTS
 10
  8.0000
 20
  4.0000
 30
0.0
 0
SEQEND
 8
PARTS
 0
POLYLINE
 8
PARTS
 66
1
 10
0.0
 20
0.0
 30
0.0
 0
VERTEX
 8
PARTS
 10
  8.0000
 20
  4.0400
 30
0.0
 42
  0.1654
 0
VERTEX
 8
PARTS
 10
  8.1000
 20
  4.0700
 30
0.0
 0
SEQEND
 8
PARTS
 0
POLYLINE
 8
PARTS
 66
1
 10
0.0
 20
0.0
 30
0.0
 0
VERTEX
 8
PARTS
 10
  7.9000
 20
  4.0700
 30
0.0
 42
  0.1654
 0
VERTEX
 8
PARTS
 10
  8.0000
 20
  4.0400
 30
0.0
 0
SEQEND
 8
PARTS
 0
TEXT
 8
PARTTEXT
 10
  8.1500
 20
  4.0014
 30
0.0
 40
  0.0514
 50
180.0000
 1
+
 0
TEXT
 8
PARTTEXT
 10
  7.3200
 20
  4.9886
 30
0.0
 40
  0.0514
 1
R6
 0
TEXT
 8
PARTTEXT
 10
  7.3200
 20
  6.0386
 30
0.0
 40
  0.0514
 1
470
 0
LINE
 8
PARTS
 10
  7.0000
 20
  5.2000
 30
0.0
 11
  7.3000
 21
  5.2000
 31
0.0
 0
TEXT
 8
PARTS
 10
  7.3900
 20
  5.1750
 30
0.0
 40
  0.0500
 1
COM
 0
TEXT
 8
PARTS
 10
  7.2000
 20
  5.2300
 30
0.0
 40
  0.0500
 1
1
 0
LINE
 8
PARTS
 10
  7.0000
 20
  5.3000
 30
0.0
 11
  7.3000
 21
  5.3000
 31
0.0
 0
TEXT
 8
PARTS
 10
  7.3900
 20
  5.2750
 30
0.0
 40
  0.0500
 1
R1
 0
TEXT
 8
PARTS
 10
  7.2000
 20
  5.3300
 30
0.0
 40
  0.0500
 1
2
 0
LINE
 8
PARTS
 10
  7.0000
 20
  5.4000
 30
0.0
 11
  7.3000
 21
  5.4000
 31
0.0
 0
TEXT
 8
PARTS
 10
  7.3900
 20
  5.3750
 30
0.0
 40
  0.0500
 1
R2
 0
TEXT
 8
PARTS
 10
  7.2000
 20
  5.4300
 30
0.0
 40
  0.0500
 1
3
 0
LINE
 8
PARTS
 10
  7.0000
 20
  5.5000
 30
0.0
 11
  7.3000
 21
  5.5000
 31
0.0
 0
TEXT
 8
PARTS
 10
  7.3900
 20
  5.4750
 30
0.0
 40
  0.0500
 1
R3
 0
TEXT
 8
PARTS
 10
  7.2000
 20
  5.5300
 30
0.0
 40
  0.0500
 1
4
 0
LINE
 8
PARTS
 10
  7.0000
 20
  5.6000
 30
0.0
 11
  7.3000
 21
  5.6000
 31
0.0
 0
TEXT
 8
PARTS
 10
  7.3900
 20
  5.5750
 30
0.0
 40
  0.0500
 1
R4
 0
TEXT
 8
PARTS
 10
  7.2000
 20
  5.6300
 30
0.0
 40
  0.0500
 1
5
 0
LINE
 8
PARTS
 10
  7.0000
 20
  5.7000
 30
0.0
 11
  7.3000
 21
  5.7000
 31
0.0
 0
TEXT
 8
PARTS
 10
  7.3900
 20
  5.6750
 30
0.0
 40
  0.0500
 1
R5
 0
TEXT
 8
PARTS
 10
  7.2000
 20
  5.7300
 30
0.0
 40
  0.0500
 1
6
 0
LINE
 8
PARTS
 10
  7.0000
 20
  5.8000
 30
0.0
 11
  7.3000
 21
  5.8000
 31
0.0
 0
TEXT
 8
PARTS
 10
  7.3900
 20
  5.7750
 30
0.0
 40
  0.0500
 1
R6
 0
TEXT
 8
PARTS
 10
  7.2000
 20
  5.8300
 30
0.0
 40
  0.0500
 1
7
 0
LINE
 8
PARTS
 10
  7.0000
 20
  5.9000
 30
0.0
 11
  7.3000
 21
  5.9000
 31
0.0
 0
TEXT
 8
PARTS
 10
  7.3900
 20
  5.8750
 30
0.0
 40
  0.0500
 1
R7
 0
TEXT
 8
PARTS
 10
  7.2000
 20
  5.9300
 30
0.0
 40
  0.0500
 1
8
 0
POLYLINE
 8
PARTS
 66
1
 70
1
 10
0.0
 20
0.0
 30
0.0
 0
VERTEX
 8
PARTS
 10
  7.6000
 20
  5.1000
 30
0.0
 0
VERTEX
 8
PARTS
 10
  7.3000
 20
  5.1000
 30
0.0
 0
VERTEX
 8
PARTS
 10
  7.3000
 20
  6.0000
 30
0.0
 0
VERTEX
 8
PARTS
 10
  7.6000
 20
  6.0000
 30
0.0
 0
SEQEND
 8
PARTS
 0
TEXT
 8
PARTTEXT
 10
  5.4700
 20
  6.0586
 30
0.0
 40
  0.0514
 1
U2
 0
TEXT
 8
PARTTEXT
 10
  5.5000
 20
  4.9786
 30
0.0
 40
  0.0514
 1
MC100EL15
 0
LINE
 8
PARTS
 10
  5.1000
 20
  5.9000
 30
0.0
 11
  5.4000
 21
  5.9000
 31
0.0
 0
TEXT
 8
PARTS
 10
  5.4900
 20
  5.8750
 30
0.0
 40
  0.0500
 1
CLK
 0
TEXT
 8
PARTS
 10
  5.2600
 20
  5.9300
 30
0.0
 40
  0.0500
 1
13
 0
CIRCLE
 8
PARTS
 10
  5.3700
 20
  5.8000
 30
0.0
 40
  0.0300
 0
LINE
 8
PARTS
 10
  5.1000
 20
  5.8000
 30
0.0
 11
  5.3400
 21
  5.8000
 31
0.0
 0
TEXT
 8
PARTS
 10
  5.4900
 20
  5.7750
 30
0.0
 40
  0.0500
 1
CLK
 0
TEXT
 8
PARTS
 10
  5.2600
 20
  5.8300
 30
0.0
 40
  0.0500
 1
12
 0
LINE
 8
PARTS
 10
  5.1000
 20
  5.6000
 30
0.0
 11
  5.4000
 21
  5.6000
 31
0.0
 0
TEXT
 8
PARTS
 10
  5.4900
 20
  5.5750
 30
0.0
 40
  0.0500
 1
SCLK
 0
TEXT
 8
PARTS
 10
  5.2600
 20
  5.6300
 30
0.0
 40
  0.0500
 1
14
 0
LINE
 8
PARTS
 10
  5.1000
 20
  5.5000
 30
0.0
 11
  5.4000
 21
  5.5000
 31
0.0
 0
TEXT
 8
PARTS
 10
  5.4900
 20
  5.4750
 30
0.0
 40
  0.0500
 1
SEL
 0
TEXT
 8
PARTS
 10
  5.2600
 20
  5.5300
 30
0.0
 40
  0.0500
 1
10
 0
LINE
 8
PARTS
 10
  5.1000
 20
  5.7000
 30
0.0
 11
  5.4000
 21
  5.7000
 31
0.0
 0
TEXT
 8
PARTS
 10
  5.4900
 20
  5.6750
 30
0.0
 40
  0.0500
 1
VBB
 0
TEXT
 8
PARTS
 10
  5.2600
 20
  5.7300
 30
0.0
 40
  0.0500
 1
11
 0
CIRCLE
 8
PARTS
 10
  5.3700
 20
  5.4000
 30
0.0
 40
  0.0300
 0
LINE
 8
PARTS
 10
  5.1000
 20
  5.4000
 30
0.0
 11
  5.3400
 21
  5.4000
 31
0.0
 0
TEXT
 8
PARTS
 10
  5.4900
 20
  5.3750
 30
0.0
 40
  0.0500
 1
EN
 0
TEXT
 8
PARTS
 10
  5.2600
 20
  5.4300
 30
0.0
 40
  0.0500
 1
15
 0
LINE
 8
PARTS
 10
  6.4000
 20
  5.9000
 30
0.0
 11
  6.1000
 21
  5.9000
 31
0.0
 0
TEXT
 8
PARTS
 10
  5.9300
 20
  5.8750
 30
0.0
 40
  0.0500
 1
Q0
 0
TEXT
 8
PARTS
 10
  6.1600
 20
  5.9300
 30
0.0
 40
  0.0500
 1
1
 0
CIRCLE
 8
PARTS
 10
  6.1300
 20
  5.8000
 30
0.0
 40
  0.0300
 0
LINE
 8
PARTS
 10
  6.4000
 20
  5.8000
 30
0.0
 11
  6.1600
 21
  5.8000
 31
0.0
 0
TEXT
 8
PARTS
 10
  5.9300
 20
  5.7750
 30
0.0
 40
  0.0500
 1
Q0
 0
TEXT
 8
PARTS
 10
  6.1600
 20
  5.8300
 30
0.0
 40
  0.0500
 1
2
 0
LINE
 8
PARTS
 10
  6.4000
 20
  5.7000
 30
0.0
 11
  6.1000
 21
  5.7000
 31
0.0
 0
TEXT
 8
PARTS
 10
  5.9300
 20
  5.6750
 30
0.0
 40
  0.0500
 1
Q1
 0
TEXT
 8
PARTS
 10
  6.1600
 20
  5.7300
 30
0.0
 40
  0.0500
 1
3
 0
CIRCLE
 8
PARTS
 10
  6.1300
 20
  5.6000
 30
0.0
 40
  0.0300
 0
LINE
 8
PARTS
 10
  6.4000
 20
  5.6000
 30
0.0
 11
  6.1600
 21
  5.6000
 31
0.0
 0
TEXT
 8
PARTS
 10
  5.9300
 20
  5.5750
 30
0.0
 40
  0.0500
 1
Q1
 0
TEXT
 8
PARTS
 10
  6.1600
 20
  5.6300
 30
0.0
 40
  0.0500
 1
4
 0
LINE
 8
PARTS
 10
  6.4000
 20
  5.5000
 30
0.0
 11
  6.1000
 21
  5.5000
 31
0.0
 0
TEXT
 8
PARTS
 10
  5.9300
 20
  5.4750
 30
0.0
 40
  0.0500
 1
Q2
 0
TEXT
 8
PARTS
 10
  6.1600
 20
  5.5300
 30
0.0
 40
  0.0500
 1
5
 0
CIRCLE
 8
PARTS
 10
  6.1300
 20
  5.4000
 30
0.0
 40
  0.0300
 0
LINE
 8
PARTS
 10
  6.4000
 20
  5.4000
 30
0.0
 11
  6.1600
 21
  5.4000
 31
0.0
 0
TEXT
 8
PARTS
 10
  5.9300
 20
  5.3750
 30
0.0
 40
  0.0500
 1
Q2
 0
TEXT
 8
PARTS
 10
  6.1600
 20
  5.4300
 30
0.0
 40
  0.0500
 1
6
 0
LINE
 8
PARTS
 10
  6.4000
 20
  5.3000
 30
0.0
 11
  6.1000
 21
  5.3000
 31
0.0
 0
TEXT
 8
PARTS
 10
  5.9300
 20
  5.2750
 30
0.0
 40
  0.0500
 1
Q3
 0
TEXT
 8
PARTS
 10
  6.1600
 20
  5.3300
 30
0.0
 40
  0.0500
 1
7
 0
CIRCLE
 8
PARTS
 10
  6.1300
 20
  5.2000
 30
0.0
 40
  0.0300
 0
LINE
 8
PARTS
 10
  6.4000
 20
  5.2000
 30
0.0
 11
  6.1600
 21
  5.2000
 31
0.0
 0
TEXT
 8
PARTS
 10
  5.9300
 20
  5.1750
 30
0.0
 40
  0.0500
 1
Q3
 0
TEXT
 8
PARTS
 10
  6.1600
 20
  5.2300
 30
0.0
 40
  0.0500
 1
8
 0
POLYLINE
 8
PARTS
 66
1
 70
1
 10
0.0
 20
0.0
 30
0.0
 0
VERTEX
 8
PARTS
 10
  5.4000
 20
  6.0000
 30
0.0
 0
VERTEX
 8
PARTS
 10
  6.1000
 20
  6.0000
 30
0.0
 0
VERTEX
 8
PARTS
 10
  6.1000
 20
  5.1000
 30
0.0
 0
VERTEX
 8
PARTS
 10
  5.4000
 20
  5.1000
 30
0.0
 0
SEQEND
 8
PARTS
 0
TEXT
 8
PARTTEXT
 10
  4.9900
 20
  6.3186
 30
0.0
 40
  0.0514
 1
R4
 0
TEXT
 8
PARTTEXT
 10
  4.9900
 20
  6.2286
 30
0.0
 40
  0.0514
 1
680
 0
LINE
 8
PARTS
 10
  4.8000
 20
  6.5000
 30
0.0
 11
  4.8000
 21
  6.4000
 31
0.0
 0
TEXT
 8
PARTS
 10
  4.7700
 20
  6.4600
 30
0.0
 40
  0.0500
 50
 90.0000
 1

 0
LINE
 8
PARTS
 10
  4.8000
 20
  6.0000
 30
0.0
 11
  4.8000
 21
  6.1000
 31
0.0
 0
TEXT
 8
PARTS
 10
  4.7700
 20
  5.9800
 30
0.0
 40
  0.0500
 50
 90.0000
 1

 0
POLYLINE
 8
PARTS
 66
1
 10
0.0
 20
0.0
 30
0.0
 0
VERTEX
 8
PARTS
 10
  4.8000
 20
  6.4000
 30
0.0
 0
VERTEX
 8
PARTS
 10
  4.8300
 20
  6.3700
 30
0.0
 0
SEQEND
 8
PARTS
 0
POLYLINE
 8
PARTS
 66
1
 10
0.0
 20
0.0
 30
0.0
 0
VERTEX
 8
PARTS
 10
  4.8300
 20
  6.3700
 30
0.0
 0
VERTEX
 8
PARTS
 10
  4.7700
 20
  6.3100
 30
0.0
 0
SEQEND
 8
PARTS
 0
POLYLINE
 8
PARTS
 66
1
 10
0.0
 20
0.0
 30
0.0
 0
VERTEX
 8
PARTS
 10
  4.7700
 20
  6.3100
 30
0.0
 0
VERTEX
 8
PARTS
 10
  4.8300
 20
  6.2500
 30
0.0
 0
SEQEND
 8
PARTS
 0
POLYLINE
 8
PARTS
 66
1
 10
0.0
 20
0.0
 30
0.0
 0
VERTEX
 8
PARTS
 10
  4.8300
 20
  6.2500
 30
0.0
 0
VERTEX
 8
PARTS
 10
  4.7700
 20
  6.1900
 30
0.0
 0
SEQEND
 8
PARTS
 0
POLYLINE
 8
PARTS
 66
1
 10
0.0
 20
0.0
 30
0.0
 0
VERTEX
 8
PARTS
 10
  4.7700
 20
  6.1900
 30
0.0
 0
VERTEX
 8
PARTS
 10
  4.8300
 20
  6.1300
 30
0.0
 0
SEQEND
 8
PARTS
 0
POLYLINE
 8
PARTS
 66
1
 10
0.0
 20
0.0
 30
0.0
 0
VERTEX
 8
PARTS
 10
  4.8300
 20
  6.1300
 30
0.0
 0
VERTEX
 8
PARTS
 10
  4.8000
 20
  6.1000
 30
0.0
 0
SEQEND
 8
PARTS
 0
TEXT
 8
PARTTEXT
 10
  2.6100
 20
  5.8586
 30
0.0
 40
  0.0514
 1
R2
 0
TEXT
 8
PARTTEXT
 10
  2.5500
 20
  5.7486
 30
0.0
 40
  0.0514
 1
200
 0
LINE
 8
PARTS
 10
  2.8000
 20
  6.1000
 30
0.0
 11
  2.8000
 21
  6.0000
 31
0.0
 0
TEXT
 8
PARTS
 10
  2.7700
 20
  6.0600
 30
0.0
 40
  0.0500
 50
 90.0000
 1

 0
LINE
 8
PARTS
 10
  2.8000
 20
  5.6000
 30
0.0
 11
  2.8000
 21
  5.7000
 31
0.0
 0
TEXT
 8
PARTS
 10
  2.7700
 20
  5.5800
 30
0.0
 40
  0.0500
 50
 90.0000
 1

 0
POLYLINE
 8
PARTS
 66
1
 10
0.0
 20
0.0
 30
0.0
 0
VERTEX
 8
PARTS
 10
  2.8000
 20
  6.0000
 30
0.0
 0
VERTEX
 8
PARTS
 10
  2.8300
 20
  5.9700
 30
0.0
 0
SEQEND
 8
PARTS
 0
POLYLINE
 8
PARTS
 66
1
 10
0.0
 20
0.0
 30
0.0
 0
VERTEX
 8
PARTS
 10
  2.8300
 20
  5.9700
 30
0.0
 0
VERTEX
 8
PARTS
 10
  2.7700
 20
  5.9100
 30
0.0
 0
SEQEND
 8
PARTS
 0
POLYLINE
 8
PARTS
 66
1
 10
0.0
 20
0.0
 30
0.0
 0
VERTEX
 8
PARTS
 10
  2.7700
 20
  5.9100
 30
0.0
 0
VERTEX
 8
PARTS
 10
  2.8300
 20
  5.8500
 30
0.0
 0
SEQEND
 8
PARTS
 0
POLYLINE
 8
PARTS
 66
1
 10
0.0
 20
0.0
 30
0.0
 0
VERTEX
 8
PARTS
 10
  2.8300
 20
  5.8500
 30
0.0
 0
VERTEX
 8
PARTS
 10
  2.7700
 20
  5.7900
 30
0.0
 0
SEQEND
 8
PARTS
 0
POLYLINE
 8
PARTS
 66
1
 10
0.0
 20
0.0
 30
0.0
 0
VERTEX
 8
PARTS
 10
  2.7700
 20
  5.7900
 30
0.0
 0
VERTEX
 8
PARTS
 10
  2.8300
 20
  5.7300
 30
0.0
 0
SEQEND
 8
PARTS
 0
POLYLINE
 8
PARTS
 66
1
 10
0.0
 20
0.0
 30
0.0
 0
VERTEX
 8
PARTS
 10
  2.8300
 20
  5.7300
 30
0.0
 0
VERTEX
 8
PARTS
 10
  2.8000
 20
  5.7000
 30
0.0
 0
SEQEND
 8
PARTS
 0
TEXT
 8
PARTTEXT
 10
  0.9500
 20
  6.2086
 30
0.0
 40
  0.0514
 1
J1
 0
TEXT
 8
PARTTEXT
 10
  0.9500
 20
  6.1086
 30
0.0
 40
  0.0514
 1
SMA
 0
LINE
 8
PARTS
 10
  1.2000
 20
  6.0000
 30
0.0
 11
  1.1000
 21
  6.0000
 31
0.0
 0
TEXT
 8
PARTS
 10
  1.1600
 20
  6.0300
 30
0.0
 40
  0.0500
 1

 0
LINE
 8
PARTS
 10
  1.0000
 20
  5.8000
 30
0.0
 11
  1.0000
 21
  5.9000
 31
0.0
 0
TEXT
 8
PARTS
 10
  0.9700
 20
  5.7800
 30
0.0
 40
  0.0500
 50
 90.0000
 1

 0
POLYLINE
 8
PARTS
 66
1
 70
1
 10
0.0
 20
0.0
 30
0.0
 0
VERTEX
 8
PARTS
 10
  1.0300
 20
  6.0000
 30
0.0
 42
  0.0985
 0
VERTEX
 8
PARTS
 10
  1.0277
 20
  6.0115
 30
0.0
 42
  0.0985
 0
VERTEX
 8
PARTS
 10
  1.0212
 20
  6.0212
 30
0.0
 42
  0.0985
 0
VERTEX
 8
PARTS
 10
  1.0115
 20
  6.0277
 30
0.0
 42
  0.0985
 0
VERTEX
 8
PARTS
 10
  1.0000
 20
  6.0300
 30
0.0
 42
  0.0985
 0
VERTEX
 8
PARTS
 10
  0.9885
 20
  6.0277
 30
0.0
 42
  0.0985
 0
VERTEX
 8
PARTS
 10
  0.9788
 20
  6.0212
 30
0.0
 42
  0.0985
 0
VERTEX
 8
PARTS
 10
  0.9723
 20
  6.0115
 30
0.0
 42
  0.0985
 0
VERTEX
 8
PARTS
 10
  0.9700
 20
  6.0000
 30
0.0
 42
  0.0985
 0
VERTEX
 8
PARTS
 10
  0.9723
 20
  5.9885
 30
0.0
 42
  0.0985
 0
VERTEX
 8
PARTS
 10
  0.9788
 20
  5.9788
 30
0.0
 42
  0.0985
 0
VERTEX
 8
PARTS
 10
  0.9885
 20
  5.9723
 30
0.0
 42
  0.0985
 0
VERTEX
 8
PARTS
 10
  1.0000
 20
  5.9700
 30
0.0
 42
  0.0985
 0
VERTEX
 8
PARTS
 10
  1.0115
 20
  5.9723
 30
0.0
 42
  0.0985
 0
VERTEX
 8
PARTS
 10
  1.0212
 20
  5.9788
 30
0.0
 42
  0.0985
 0
VERTEX
 8
PARTS
 10
  1.0277
 20
  5.9885
 30
0.0
 42
  0.0985
 0
SEQEND
 8
PARTS
 0
POLYLINE
 8
PARTS
 66
1
 10
0.0
 20
0.0
 30
0.0
 0
VERTEX
 8
PARTS
 10
  1.1000
 20
  6.0000
 30
0.0
 0
VERTEX
 8
PARTS
 10
  1.0300
 20
  6.0000
 30
0.0
 0
SEQEND
 8
PARTS
 0
POLYLINE
 8
PARTS
 66
1
 70
1
 10
0.0
 20
0.0
 30
0.0
 0
VERTEX
 8
PARTS
 10
  1.1000
 20
  6.0000
 30
0.0
 42
  0.0985
 0
VERTEX
 8
PARTS
 10
  1.0924
 20
  6.0383
 30
0.0
 42
  0.0985
 0
VERTEX
 8
PARTS
 10
  1.0707
 20
  6.0707
 30
0.0
 42
  0.0985
 0
VERTEX
 8
PARTS
 10
  1.0383
 20
  6.0924
 30
0.0
 42
  0.0985
 0
VERTEX
 8
PARTS
 10
  1.0000
 20
  6.1000
 30
0.0
 42
  0.0985
 0
VERTEX
 8
PARTS
 10
  0.9617
 20
  6.0924
 30
0.0
 42
  0.0985
 0
VERTEX
 8
PARTS
 10
  0.9293
 20
  6.0707
 30
0.0
 42
  0.0985
 0
VERTEX
 8
PARTS
 10
  0.9076
 20
  6.0383
 30
0.0
 42
  0.0985
 0
VERTEX
 8
PARTS
 10
  0.9000
 20
  6.0000
 30
0.0
 42
  0.0985
 0
VERTEX
 8
PARTS
 10
  0.9076
 20
  5.9617
 30
0.0
 42
  0.0985
 0
VERTEX
 8
PARTS
 10
  0.9293
 20
  5.9293
 30
0.0
 42
  0.0985
 0
VERTEX
 8
PARTS
 10
  0.9617
 20
  5.9076
 30
0.0
 42
  0.0985
 0
VERTEX
 8
PARTS
 10
  1.0000
 20
  5.9000
 30
0.0
 42
  0.0985
 0
VERTEX
 8
PARTS
 10
  1.0383
 20
  5.9076
 30
0.0
 42
  0.0985
 0
VERTEX
 8
PARTS
 10
  1.0707
 20
  5.9293
 30
0.0
 42
  0.0985
 0
VERTEX
 8
PARTS
 10
  1.0924
 20
  5.9617
 30
0.0
 42
  0.0985
 0
SEQEND
 8
PARTS
 0
TEXT
 8
PARTTEXT
 10
  6.9900
 20
  3.9186
 30
0.0
 40
  0.0514
 1
C2
 0
TEXT
 8
PARTTEXT
 10
  6.9300
 20
  4.0286
 30
0.0
 40
  0.0514
 1
.01u
 0
LINE
 8
PARTS
 10
  6.8000
 20
  3.8000
 30
0.0
 11
  6.8000
 21
  3.9000
 31
0.0
 0
TEXT
 8
PARTS
 10
  6.7700
 20
  3.7800
 30
0.0
 40
  0.0500
 50
 90.0000
 1
1
 0
LINE
 8
PARTS
 10
  6.8000
 20
  4.2000
 30
0.0
 11
  6.8000
 21
  4.1000
 31
0.0
 0
TEXT
 8
PARTS
 10
  6.7700
 20
  4.1600
 30
0.0
 40
  0.0500
 50
 90.0000
 1
2
 0
POLYLINE
 8
PARTS
 66
1
 10
0.0
 20
0.0
 30
0.0
 0
VERTEX
 8
PARTS
 10
  6.8000
 20
  4.0400
 30
0.0
 0
VERTEX
 8
PARTS
 10
  6.8000
 20
  4.1000
 30
0.0
 0
SEQEND
 8
PARTS
 0
POLYLINE
 8
PARTS
 66
1
 10
0.0
 20
0.0
 30
0.0
 0
VERTEX
 8
PARTS
 10
  6.7000
 20
  4.0000
 30
0.0
 0
VERTEX
 8
PARTS
 10
  6.9000
 20
  4.0000
 30
0.0
 0
SEQEND
 8
PARTS
 0
POLYLINE
 8
PARTS
 66
1
 10
0.0
 20
0.0
 30
0.0
 0
VERTEX
 8
PARTS
 10
  6.8000
 20
  3.9000
 30
0.0
 0
VERTEX
 8
PARTS
 10
  6.8000
 20
  4.0000
 30
0.0
 0
SEQEND
 8
PARTS
 0
POLYLINE
 8
PARTS
 66
1
 10
0.0
 20
0.0
 30
0.0
 0
VERTEX
 8
PARTS
 10
  6.8000
 20
  4.0400
 30
0.0
 42
  0.1654
 0
VERTEX
 8
PARTS
 10
  6.9000
 20
  4.0700
 30
0.0
 0
SEQEND
 8
PARTS
 0
POLYLINE
 8
PARTS
 66
1
 10
0.0
 20
0.0
 30
0.0
 0
VERTEX
 8
PARTS
 10
  6.7000
 20
  4.0700
 30
0.0
 42
  0.1654
 0
VERTEX
 8
PARTS
 10
  6.8000
 20
  4.0400
 30
0.0
 0
SEQEND
 8
PARTS
 0
TEXT
 8
PARTTEXT
 10
  6.9500
 20
  4.0014
 30
0.0
 40
  0.0514
 50
180.0000
 1
+
 0
TEXT
 8
PARTTEXT
 10
  4.4100
 20
  6.3286
 30
0.0
 40
  0.0514
 1
R1
 0
TEXT
 8
PARTTEXT
 10
  4.3200
 20
  6.2286
 30
0.0
 40
  0.0514
 1
680
 0
LINE
 8
PARTS
 10
  4.6000
 20
  6.5000
 30
0.0
 11
  4.6000
 21
  6.4000
 31
0.0
 0
TEXT
 8
PARTS
 10
  4.5700
 20
  6.4600
 30
0.0
 40
  0.0500
 50
 90.0000
 1

 0
LINE
 8
PARTS
 10
  4.6000
 20
  6.0000
 30
0.0
 11
  4.6000
 21
  6.1000
 31
0.0
 0
TEXT
 8
PARTS
 10
  4.5700
 20
  5.9800
 30
0.0
 40
  0.0500
 50
 90.0000
 1

 0
POLYLINE
 8
PARTS
 66
1
 10
0.0
 20
0.0
 30
0.0
 0
VERTEX
 8
PARTS
 10
  4.6000
 20
  6.4000
 30
0.0
 0
VERTEX
 8
PARTS
 10
  4.6300
 20
  6.3700
 30
0.0
 0
SEQEND
 8
PARTS
 0
POLYLINE
 8
PARTS
 66
1
 10
0.0
 20
0.0
 30
0.0
 0
VERTEX
 8
PARTS
 10
  4.6300
 20
  6.3700
 30
0.0
 0
VERTEX
 8
PARTS
 10
  4.5700
 20
  6.3100
 30
0.0
 0
SEQEND
 8
PARTS
 0
POLYLINE
 8
PARTS
 66
1
 10
0.0
 20
0.0
 30
0.0
 0
VERTEX
 8
PARTS
 10
  4.5700
 20
  6.3100
 30
0.0
 0
VERTEX
 8
PARTS
 10
  4.6300
 20
  6.2500
 30
0.0
 0
SEQEND
 8
PARTS
 0
POLYLINE
 8
PARTS
 66
1
 10
0.0
 20
0.0
 30
0.0
 0
VERTEX
 8
PARTS
 10
  4.6300
 20
  6.2500
 30
0.0
 0
VERTEX
 8
PARTS
 10
  4.5700
 20
  6.1900
 30
0.0
 0
SEQEND
 8
PARTS
 0
POLYLINE
 8
PARTS
 66
1
 10
0.0
 20
0.0
 30
0.0
 0
VERTEX
 8
PARTS
 10
  4.5700
 20
  6.1900
 30
0.0
 0
VERTEX
 8
PARTS
 10
  4.6300
 20
  6.1300
 30
0.0
 0
SEQEND
 8
PARTS
 0
POLYLINE
 8
PARTS
 66
1
 10
0.0
 20
0.0
 30
0.0
 0
VERTEX
 8
PARTS
 10
  4.6300
 20
  6.1300
 30
0.0
 0
VERTEX
 8
PARTS
 10
  4.6000
 20
  6.1000
 30
0.0
 0
SEQEND
 8
PARTS
 0
TEXT
 8
PARTTEXT
 10
  2.7000
 20
  5.3686
 30
0.0
 40
  0.0514
 1
R5
 0
TEXT
 8
PARTTEXT
 10
  2.6700
 20
  5.1586
 30
0.0
 40
  0.0514
 1
200
 0
LINE
 8
PARTS
 10
  2.5000
 20
  5.3000
 30
0.0
 11
  2.6000
 21
  5.3000
 31
0.0
 0
TEXT
 8
PARTS
 10
  2.5400
 20
  5.3300
 30
0.0
 40
  0.0500
 1

 0
LINE
 8
PARTS
 10
  3.0000
 20
  5.3000
 30
0.0
 11
  2.9000
 21
  5.3000
 31
0.0
 0
TEXT
 8
PARTS
 10
  2.9600
 20
  5.3300
 30
0.0
 40
  0.0500
 1

 0
POLYLINE
 8
PARTS
 66
1
 10
0.0
 20
0.0
 30
0.0
 0
VERTEX
 8
PARTS
 10
  2.6000
 20
  5.3000
 30
0.0
 0
VERTEX
 8
PARTS
 10
  2.6300
 20
  5.3300
 30
0.0
 0
SEQEND
 8
PARTS
 0
POLYLINE
 8
PARTS
 66
1
 10
0.0
 20
0.0
 30
0.0
 0
VERTEX
 8
PARTS
 10
  2.6300
 20
  5.3300
 30
0.0
 0
VERTEX
 8
PARTS
 10
  2.6900
 20
  5.2700
 30
0.0
 0
SEQEND
 8
PARTS
 0
POLYLINE
 8
PARTS
 66
1
 10
0.0
 20
0.0
 30
0.0
 0
VERTEX
 8
PARTS
 10
  2.6900
 20
  5.2700
 30
0.0
 0
VERTEX
 8
PARTS
 10
  2.7500
 20
  5.3300
 30
0.0
 0
SEQEND
 8
PARTS
 0
POLYLINE
 8
PARTS
 66
1
 10
0.0
 20
0.0
 30
0.0
 0
VERTEX
 8
PARTS
 10
  2.7500
 20
  5.3300
 30
0.0
 0
VERTEX
 8
PARTS
 10
  2.8100
 20
  5.2700
 30
0.0
 0
SEQEND
 8
PARTS
 0
POLYLINE
 8
PARTS
 66
1
 10
0.0
 20
0.0
 30
0.0
 0
VERTEX
 8
PARTS
 10
  2.8100
 20
  5.2700
 30
0.0
 0
VERTEX
 8
PARTS
 10
  2.8700
 20
  5.3300
 30
0.0
 0
SEQEND
 8
PARTS
 0
POLYLINE
 8
PARTS
 66
1
 10
0.0
 20
0.0
 30
0.0
 0
VERTEX
 8
PARTS
 10
  2.8700
 20
  5.3300
 30
0.0
 0
VERTEX
 8
PARTS
 10
  2.9000
 20
  5.3000
 30
0.0
 0
SEQEND
 8
PARTS
 0
TEXT
 8
PARTTEXT
 10
  5.1500
 20
  4.4086
 30
0.0
 40
  0.0514
 1
J3
 0
TEXT
 8
PARTTEXT
 10
  5.1500
 20
  4.3086
 30
0.0
 40
  0.0514
 1
SMA
 0
LINE
 8
PARTS
 10
  5.0000
 20
  4.2000
 30
0.0
 11
  5.1000
 21
  4.2000
 31
0.0
 0
TEXT
 8
PARTS
 10
  5.0400
 20
  4.2300
 30
0.0
 40
  0.0500
 1

 0
LINE
 8
PARTS
 10
  5.2000
 20
  4.0000
 30
0.0
 11
  5.2000
 21
  4.1000
 31
0.0
 0
TEXT
 8
PARTS
 10
  5.1700
 20
  3.9800
 30
0.0
 40
  0.0500
 50
 90.0000
 1

 0
POLYLINE
 8
PARTS
 66
1
 70
1
 10
0.0
 20
0.0
 30
0.0
 0
VERTEX
 8
PARTS
 10
  5.2300
 20
  4.2000
 30
0.0
 42
  0.0985
 0
VERTEX
 8
PARTS
 10
  5.2277
 20
  4.2115
 30
0.0
 42
  0.0985
 0
VERTEX
 8
PARTS
 10
  5.2212
 20
  4.2212
 30
0.0
 42
  0.0985
 0
VERTEX
 8
PARTS
 10
  5.2115
 20
  4.2277
 30
0.0
 42
  0.0985
 0
VERTEX
 8
PARTS
 10
  5.2000
 20
  4.2300
 30
0.0
 42
  0.0985
 0
VERTEX
 8
PARTS
 10
  5.1885
 20
  4.2277
 30
0.0
 42
  0.0985
 0
VERTEX
 8
PARTS
 10
  5.1788
 20
  4.2212
 30
0.0
 42
  0.0985
 0
VERTEX
 8
PARTS
 10
  5.1723
 20
  4.2115
 30
0.0
 42
  0.0985
 0
VERTEX
 8
PARTS
 10
  5.1700
 20
  4.2000
 30
0.0
 42
  0.0985
 0
VERTEX
 8
PARTS
 10
  5.1723
 20
  4.1885
 30
0.0
 42
  0.0985
 0
VERTEX
 8
PARTS
 10
  5.1788
 20
  4.1788
 30
0.0
 42
  0.0985
 0
VERTEX
 8
PARTS
 10
  5.1885
 20
  4.1723
 30
0.0
 42
  0.0985
 0
VERTEX
 8
PARTS
 10
  5.2000
 20
  4.1700
 30
0.0
 42
  0.0985
 0
VERTEX
 8
PARTS
 10
  5.2115
 20
  4.1723
 30
0.0
 42
  0.0985
 0
VERTEX
 8
PARTS
 10
  5.2212
 20
  4.1788
 30
0.0
 42
  0.0985
 0
VERTEX
 8
PARTS
 10
  5.2277
 20
  4.1885
 30
0.0
 42
  0.0985
 0
SEQEND
 8
PARTS
 0
POLYLINE
 8
PARTS
 66
1
 10
0.0
 20
0.0
 30
0.0
 0
VERTEX
 8
PARTS
 10
  5.1000
 20
  4.2000
 30
0.0
 0
VERTEX
 8
PARTS
 10
  5.1700
 20
  4.2000
 30
0.0
 0
SEQEND
 8
PARTS
 0
POLYLINE
 8
PARTS
 66
1
 70
1
 10
0.0
 20
0.0
 30
0.0
 0
VERTEX
 8
PARTS
 10
  5.3000
 20
  4.2000
 30
0.0
 42
  0.0985
 0
VERTEX
 8
PARTS
 10
  5.2924
 20
  4.2383
 30
0.0
 42
  0.0985
 0
VERTEX
 8
PARTS
 10
  5.2707
 20
  4.2707
 30
0.0
 42
  0.0985
 0
VERTEX
 8
PARTS
 10
  5.2383
 20
  4.2924
 30
0.0
 42
  0.0985
 0
VERTEX
 8
PARTS
 10
  5.2000
 20
  4.3000
 30
0.0
 42
  0.0985
 0
VERTEX
 8
PARTS
 10
  5.1617
 20
  4.2924
 30
0.0
 42
  0.0985
 0
VERTEX
 8
PARTS
 10
  5.1293
 20
  4.2707
 30
0.0
 42
  0.0985
 0
VERTEX
 8
PARTS
 10
  5.1076
 20
  4.2383
 30
0.0
 42
  0.0985
 0
VERTEX
 8
PARTS
 10
  5.1000
 20
  4.2000
 30
0.0
 42
  0.0985
 0
VERTEX
 8
PARTS
 10
  5.1076
 20
  4.1617
 30
0.0
 42
  0.0985
 0
VERTEX
 8
PARTS
 10
  5.1293
 20
  4.1293
 30
0.0
 42
  0.0985
 0
VERTEX
 8
PARTS
 10
  5.1617
 20
  4.1076
 30
0.0
 42
  0.0985
 0
VERTEX
 8
PARTS
 10
  5.2000
 20
  4.1000
 30
0.0
 42
  0.0985
 0
VERTEX
 8
PARTS
 10
  5.2383
 20
  4.1076
 30
0.0
 42
  0.0985
 0
VERTEX
 8
PARTS
 10
  5.2707
 20
  4.1293
 30
0.0
 42
  0.0985
 0
VERTEX
 8
PARTS
 10
  5.2924
 20
  4.1617
 30
0.0
 42
  0.0985
 0
SEQEND
 8
PARTS
 0
TEXT
 8
PARTTEXT
 10
  8.8900
 20
  3.9186
 30
0.0
 40
  0.0514
 1
C6
 0
TEXT
 8
PARTTEXT
 10
  8.8900
 20
  4.0086
 30
0.0
 40
  0.0514
 1
6.8u
 0
LINE
 8
PARTS
 10
  8.7000
 20
  3.8000
 30
0.0
 11
  8.7000
 21
  3.9000
 31
0.0
 0
TEXT
 8
PARTS
 10
  8.6700
 20
  3.7800
 30
0.0
 40
  0.0500
 50
 90.0000
 1
1
 0
LINE
 8
PARTS
 10
  8.7000
 20
  4.2000
 30
0.0
 11
  8.7000
 21
  4.1000
 31
0.0
 0
TEXT
 8
PARTS
 10
  8.6700
 20
  4.1600
 30
0.0
 40
  0.0500
 50
 90.0000
 1
2
 0
POLYLINE
 8
PARTS
 66
1
 10
0.0
 20
0.0
 30
0.0
 0
VERTEX
 8
PARTS
 10
  8.7000
 20
  4.0400
 30
0.0
 0
VERTEX
 8
PARTS
 10
  8.7000
 20
  4.1000
 30
0.0
 0
SEQEND
 8
PARTS
 0
POLYLINE
 8
PARTS
 66
1
 10
0.0
 20
0.0
 30
0.0
 0
VERTEX
 8
PARTS
 10
  8.6000
 20
  4.0000
 30
0.0
 0
VERTEX
 8
PARTS
 10
  8.8000
 20
  4.0000
 30
0.0
 0
SEQEND
 8
PARTS
 0
POLYLINE
 8
PARTS
 66
1
 10
0.0
 20
0.0
 30
0.0
 0
VERTEX
 8
PARTS
 10
  8.7000
 20
  3.9000
 30
0.0
 0
VERTEX
 8
PARTS
 10
  8.7000
 20
  4.0000
 30
0.0
 0
SEQEND
 8
PARTS
 0
POLYLINE
 8
PARTS
 66
1
 10
0.0
 20
0.0
 30
0.0
 0
VERTEX
 8
PARTS
 10
  8.7000
 20
  4.0400
 30
0.0
 42
  0.1654
 0
VERTEX
 8
PARTS
 10
  8.8000
 20
  4.0700
 30
0.0
 0
SEQEND
 8
PARTS
 0
POLYLINE
 8
PARTS
 66
1
 10
0.0
 20
0.0
 30
0.0
 0
VERTEX
 8
PARTS
 10
  8.6000
 20
  4.0700
 30
0.0
 42
  0.1654
 0
VERTEX
 8
PARTS
 10
  8.7000
 20
  4.0400
 30
0.0
 0
SEQEND
 8
PARTS
 0
TEXT
 8
PARTTEXT
 10
  8.8500
 20
  4.0014
 30
0.0
 40
  0.0514
 50
180.0000
 1
+
 0
TEXT
 8
PARTTEXT
 10
  6.0500
 20
  4.4086
 30
0.0
 40
  0.0514
 1
J4
 0
TEXT
 8
PARTTEXT
 10
  6.0500
 20
  4.3086
 30
0.0
 40
  0.0514
 1
SMA
 0
LINE
 8
PARTS
 10
  5.9000
 20
  4.2000
 30
0.0
 11
  6.0000
 21
  4.2000
 31
0.0
 0
TEXT
 8
PARTS
 10
  5.9400
 20
  4.2300
 30
0.0
 40
  0.0500
 1

 0
LINE
 8
PARTS
 10
  6.1000
 20
  4.0000
 30
0.0
 11
  6.1000
 21
  4.1000
 31
0.0
 0
TEXT
 8
PARTS
 10
  6.0700
 20
  3.9800
 30
0.0
 40
  0.0500
 50
 90.0000
 1

 0
POLYLINE
 8
PARTS
 66
1
 70
1
 10
0.0
 20
0.0
 30
0.0
 0
VERTEX
 8
PARTS
 10
  6.1300
 20
  4.2000
 30
0.0
 42
  0.0985
 0
VERTEX
 8
PARTS
 10
  6.1277
 20
  4.2115
 30
0.0
 42
  0.0985
 0
VERTEX
 8
PARTS
 10
  6.1212
 20
  4.2212
 30
0.0
 42
  0.0985
 0
VERTEX
 8
PARTS
 10
  6.1115
 20
  4.2277
 30
0.0
 42
  0.0985
 0
VERTEX
 8
PARTS
 10
  6.1000
 20
  4.2300
 30
0.0
 42
  0.0985
 0
VERTEX
 8
PARTS
 10
  6.0885
 20
  4.2277
 30
0.0
 42
  0.0985
 0
VERTEX
 8
PARTS
 10
  6.0788
 20
  4.2212
 30
0.0
 42
  0.0985
 0
VERTEX
 8
PARTS
 10
  6.0723
 20
  4.2115
 30
0.0
 42
  0.0985
 0
VERTEX
 8
PARTS
 10
  6.0700
 20
  4.2000
 30
0.0
 42
  0.0985
 0
VERTEX
 8
PARTS
 10
  6.0723
 20
  4.1885
 30
0.0
 42
  0.0985
 0
VERTEX
 8
PARTS
 10
  6.0788
 20
  4.1788
 30
0.0
 42
  0.0985
 0
VERTEX
 8
PARTS
 10
  6.0885
 20
  4.1723
 30
0.0
 42
  0.0985
 0
VERTEX
 8
PARTS
 10
  6.1000
 20
  4.1700
 30
0.0
 42
  0.0985
 0
VERTEX
 8
PARTS
 10
  6.1115
 20
  4.1723
 30
0.0
 42
  0.0985
 0
VERTEX
 8
PARTS
 10
  6.1212
 20
  4.1788
 30
0.0
 42
  0.0985
 0
VERTEX
 8
PARTS
 10
  6.1277
 20
  4.1885
 30
0.0
 42
  0.0985
 0
SEQEND
 8
PARTS
 0
POLYLINE
 8
PARTS
 66
1
 10
0.0
 20
0.0
 30
0.0
 0
VERTEX
 8
PARTS
 10
  6.0000
 20
  4.2000
 30
0.0
 0
VERTEX
 8
PARTS
 10
  6.0700
 20
  4.2000
 30
0.0
 0
SEQEND
 8
PARTS
 0
POLYLINE
 8
PARTS
 66
1
 70
1
 10
0.0
 20
0.0
 30
0.0
 0
VERTEX
 8
PARTS
 10
  6.2000
 20
  4.2000
 30
0.0
 42
  0.0985
 0
VERTEX
 8
PARTS
 10
  6.1924
 20
  4.2383
 30
0.0
 42
  0.0985
 0
VERTEX
 8
PARTS
 10
  6.1707
 20
  4.2707
 30
0.0
 42
  0.0985
 0
VERTEX
 8
PARTS
 10
  6.1383
 20
  4.2924
 30
0.0
 42
  0.0985
 0
VERTEX
 8
PARTS
 10
  6.1000
 20
  4.3000
 30
0.0
 42
  0.0985
 0
VERTEX
 8
PARTS
 10
  6.0617
 20
  4.2924
 30
0.0
 42
  0.0985
 0
VERTEX
 8
PARTS
 10
  6.0293
 20
  4.2707
 30
0.0
 42
  0.0985
 0
VERTEX
 8
PARTS
 10
  6.0076
 20
  4.2383
 30
0.0
 42
  0.0985
 0
VERTEX
 8
PARTS
 10
  6.0000
 20
  4.2000
 30
0.0
 42
  0.0985
 0
VERTEX
 8
PARTS
 10
  6.0076
 20
  4.1617
 30
0.0
 42
  0.0985
 0
VERTEX
 8
PARTS
 10
  6.0293
 20
  4.1293
 30
0.0
 42
  0.0985
 0
VERTEX
 8
PARTS
 10
  6.0617
 20
  4.1076
 30
0.0
 42
  0.0985
 0
VERTEX
 8
PARTS
 10
  6.1000
 20
  4.1000
 30
0.0
 42
  0.0985
 0
VERTEX
 8
PARTS
 10
  6.1383
 20
  4.1076
 30
0.0
 42
  0.0985
 0
VERTEX
 8
PARTS
 10
  6.1707
 20
  4.1293
 30
0.0
 42
  0.0985
 0
VERTEX
 8
PARTS
 10
  6.1924
 20
  4.1617
 30
0.0
 42
  0.0985
 0
SEQEND
 8
PARTS
 0
TEXT
 8
PARTTEXT
 10
  3.3900
 20
  5.1186
 30
0.0
 40
  0.0514
 1
C1
 0
TEXT
 8
PARTTEXT
 10
  3.3900
 20
  5.0286
 30
0.0
 40
  0.0514
 1
.01uF
 0
LINE
 8
PARTS
 10
  3.2000
 20
  4.9000
 30
0.0
 11
  3.2000
 21
  5.0000
 31
0.0
 0
TEXT
 8
PARTS
 10
  3.1700
 20
  4.8800
 30
0.0
 40
  0.0500
 50
 90.0000
 1
1
 0
LINE
 8
PARTS
 10
  3.2000
 20
  5.3000
 30
0.0
 11
  3.2000
 21
  5.2000
 31
0.0
 0
TEXT
 8
PARTS
 10
  3.1700
 20
  5.2600
 30
0.0
 40
  0.0500
 50
 90.0000
 1
2
 0
POLYLINE
 8
PARTS
 66
1
 10
0.0
 20
0.0
 30
0.0
 0
VERTEX
 8
PARTS
 10
  3.2000
 20
  5.1400
 30
0.0
 0
VERTEX
 8
PARTS
 10
  3.2000
 20
  5.2000
 30
0.0
 0
SEQEND
 8
PARTS
 0
POLYLINE
 8
PARTS
 66
1
 10
0.0
 20
0.0
 30
0.0
 0
VERTEX
 8
PARTS
 10
  3.3000
 20
  5.1000
 30
0.0
 0
VERTEX
 8
PARTS
 10
  3.1000
 20
  5.1000
 30
0.0
 0
SEQEND
 8
PARTS
 0
POLYLINE
 8
PARTS
 66
1
 10
0.0
 20
0.0
 30
0.0
 0
VERTEX
 8
PARTS
 10
  3.2000
 20
  5.0000
 30
0.0
 0
VERTEX
 8
PARTS
 10
  3.2000
 20
  5.1000
 30
0.0
 0
SEQEND
 8
PARTS
 0
POLYLINE
 8
PARTS
 66
1
 10
0.0
 20
0.0
 30
0.0
 0
VERTEX
 8
PARTS
 10
  3.1000
 20
  5.1700
 30
0.0
 42
  0.1654
 0
VERTEX
 8
PARTS
 10
  3.2000
 20
  5.1400
 30
0.0
 0
SEQEND
 8
PARTS
 0
POLYLINE
 8
PARTS
 66
1
 10
0.0
 20
0.0
 30
0.0
 0
VERTEX
 8
PARTS
 10
  3.2000
 20
  5.1400
 30
0.0
 42
  0.1654
 0
VERTEX
 8
PARTS
 10
  3.3000
 20
  5.1700
 30
0.0
 0
SEQEND
 8
PARTS
 0
TEXT
 8
PARTTEXT
 10
  3.1700
 20
  5.1014
 30
0.0
 40
  0.0514
 50
180.0000
 1
+
 0
TEXT
 8
PARTTEXT
 10
  1.6000
 20
  6.1586
 30
0.0
 40
  0.0514
 1
T1
 0
TEXT
 8
PARTTEXT
 10
  1.6000
 20
  5.3786
 30
0.0
 40
  0.0514
 1
MCL_T4-1H
 0
LINE
 8
PARTS
 10
  1.2000
 20
  6.0000
 30
0.0
 11
  1.5000
 21
  6.0000
 31
0.0
 0
TEXT
 8
PARTS
 10
  1.5900
 20
  5.9750
 30
0.0
 40
  0.0500
 1
PD
 0
TEXT
 8
PARTS
 10
  1.4000
 20
  6.0300
 30
0.0
 40
  0.0500
 1
4
 0
LINE
 8
PARTS
 10
  1.2000
 20
  5.8000
 30
0.0
 11
  1.5000
 21
  5.8000
 31
0.0
 0
TEXT
 8
PARTS
 10
  1.5900
 20
  5.7750
 30
0.0
 40
  0.0500
 1
NC
 0
TEXT
 8
PARTS
 10
  1.4000
 20
  5.8300
 30
0.0
 40
  0.0500
 1
5
 0
LINE
 8
PARTS
 10
  1.2000
 20
  5.6000
 30
0.0
 11
  1.5000
 21
  5.6000
 31
0.0
 0
TEXT
 8
PARTS
 10
  1.5900
 20
  5.5750
 30
0.0
 40
  0.0500
 1
P
 0
TEXT
 8
PARTS
 10
  1.4000
 20
  5.6300
 30
0.0
 40
  0.0500
 1
6
 0
LINE
 8
PARTS
 10
  2.4000
 20
  6.0000
 30
0.0
 11
  2.1000
 21
  6.0000
 31
0.0
 0
TEXT
 8
PARTS
 10
  1.9300
 20
  5.9750
 30
0.0
 40
  0.0500
 1
SD
 0
TEXT
 8
PARTS
 10
  2.1600
 20
  6.0300
 30
0.0
 40
  0.0500
 1
3
 0
LINE
 8
PARTS
 10
  2.4000
 20
  5.8000
 30
0.0
 11
  2.1000
 21
  5.8000
 31
0.0
 0
TEXT
 8
PARTS
 10
  1.8900
 20
  5.7750
 30
0.0
 40
  0.0500
 1
SCT
 0
TEXT
 8
PARTS
 10
  2.1600
 20
  5.8300
 30
0.0
 40
  0.0500
 1
2
 0
LINE
 8
PARTS
 10
  2.4000
 20
  5.6000
 30
0.0
 11
  2.1000
 21
  5.6000
 31
0.0
 0
TEXT
 8
PARTS
 10
  1.9700
 20
  5.5750
 30
0.0
 40
  0.0500
 1
S
 0
TEXT
 8
PARTS
 10
  2.1600
 20
  5.6300
 30
0.0
 40
  0.0500
 1
1
 0
POLYLINE
 8
PARTS
 66
1
 70
1
 10
0.0
 20
0.0
 30
0.0
 0
VERTEX
 8
PARTS
 10
  1.5000
 20
  6.1000
 30
0.0
 0
VERTEX
 8
PARTS
 10
  2.1000
 20
  6.1000
 30
0.0
 0
VERTEX
 8
PARTS
 10
  2.1000
 20
  5.5000
 30
0.0
 0
VERTEX
 8
PARTS
 10
  1.5000
 20
  5.5000
 30
0.0
 0
SEQEND
 8
PARTS
 0
TEXT
 8
PARTTEXT
 10
  3.5700
 20
  6.1586
 30
0.0
 40
  0.0514
 1
U1
 0
TEXT
 8
PARTTEXT
 10
  3.6000
 20
  5.4786
 30
0.0
 40
  0.0514
 1
MC100EL32
 0
LINE
 8
PARTS
 10
  3.2000
 20
  6.0000
 30
0.0
 11
  3.5000
 21
  6.0000
 31
0.0
 0
TEXT
 8
PARTS
 10
  3.5900
 20
  5.9750
 30
0.0
 40
  0.0500
 1
RES
 0
TEXT
 8
PARTS
 10
  3.4000
 20
  6.0300
 30
0.0
 40
  0.0500
 1
1
 0
LINE
 8
PARTS
 10
  3.2000
 20
  5.9000
 30
0.0
 11
  3.5000
 21
  5.9000
 31
0.0
 0
TEXT
 8
PARTS
 10
  3.5900
 20
  5.8750
 30
0.0
 40
  0.0500
 1
CLK
 0
TEXT
 8
PARTS
 10
  3.4000
 20
  5.9300
 30
0.0
 40
  0.0500
 1
2
 0
CIRCLE
 8
PARTS
 10
  3.4700
 20
  5.8000
 30
0.0
 40
  0.0300
 0
LINE
 8
PARTS
 10
  3.2000
 20
  5.8000
 30
0.0
 11
  3.4400
 21
  5.8000
 31
0.0
 0
TEXT
 8
PARTS
 10
  3.5900
 20
  5.7750
 30
0.0
 40
  0.0500
 1
CLK
 0
TEXT
 8
PARTS
 10
  3.4000
 20
  5.8300
 30
0.0
 40
  0.0500
 1
3
 0
LINE
 8
PARTS
 10
  3.2000
 20
  5.7000
 30
0.0
 11
  3.5000
 21
  5.7000
 31
0.0
 0
TEXT
 8
PARTS
 10
  3.5900
 20
  5.6750
 30
0.0
 40
  0.0500
 1
VBB
 0
TEXT
 8
PARTS
 10
  3.4000
 20
  5.7300
 30
0.0
 40
  0.0500
 1
4
 0
LINE
 8
PARTS
 10
  4.4000
 20
  5.9000
 30
0.0
 11
  4.1000
 21
  5.9000
 31
0.0
 0
TEXT
 8
PARTS
 10
  3.9700
 20
  5.8750
 30
0.0
 40
  0.0500
 1
Q
 0
TEXT
 8
PARTS
 10
  4.1600
 20
  5.9300
 30
0.0
 40
  0.0500
 1
7
 0
CIRCLE
 8
PARTS
 10
  4.1300
 20
  5.8000
 30
0.0
 40
  0.0300
 0
LINE
 8
PARTS
 10
  4.4000
 20
  5.8000
 30
0.0
 11
  4.1600
 21
  5.8000
 31
0.0
 0
TEXT
 8
PARTS
 10
  3.9700
 20
  5.7750
 30
0.0
 40
  0.0500
 1
Q
 0
TEXT
 8
PARTS
 10
  4.1600
 20
  5.8300
 30
0.0
 40
  0.0500
 1
6
 0
POLYLINE
 8
PARTS
 66
1
 70
1
 10
0.0
 20
0.0
 30
0.0
 0
VERTEX
 8
PARTS
 10
  3.5000
 20
  6.1000
 30
0.0
 0
VERTEX
 8
PARTS
 10
  4.1000
 20
  6.1000
 30
0.0
 0
VERTEX
 8
PARTS
 10
  4.1000
 20
  5.6000
 30
0.0
 0
VERTEX
 8
PARTS
 10
  3.5000
 20
  5.6000
 30
0.0
 0
SEQEND
 8
PARTS
 0
TEXT
 8
PARTTEXT
 10
  7.5900
 20
  3.9186
 30
0.0
 40
  0.0514
 1
C3
 0
TEXT
 8
PARTTEXT
 10
  7.5400
 20
  4.0186
 30
0.0
 40
  0.0514
 1
.01u
 0
LINE
 8
PARTS
 10
  7.4000
 20
  3.8000
 30
0.0
 11
  7.4000
 21
  3.9000
 31
0.0
 0
TEXT
 8
PARTS
 10
  7.3700
 20
  3.7800
 30
0.0
 40
  0.0500
 50
 90.0000
 1
1
 0
LINE
 8
PARTS
 10
  7.4000
 20
  4.2000
 30
0.0
 11
  7.4000
 21
  4.1000
 31
0.0
 0
TEXT
 8
PARTS
 10
  7.3700
 20
  4.1600
 30
0.0
 40
  0.0500
 50
 90.0000
 1
2
 0
POLYLINE
 8
PARTS
 66
1
 10
0.0
 20
0.0
 30
0.0
 0
VERTEX
 8
PARTS
 10
  7.4000
 20
  4.0400
 30
0.0
 0
VERTEX
 8
PARTS
 10
  7.4000
 20
  4.1000
 30
0.0
 0
SEQEND
 8
PARTS
 0
POLYLINE
 8
PARTS
 66
1
 10
0.0
 20
0.0
 30
0.0
 0
VERTEX
 8
PARTS
 10
  7.3000
 20
  4.0000
 30
0.0
 0
VERTEX
 8
PARTS
 10
  7.5000
 20
  4.0000
 30
0.0
 0
SEQEND
 8
PARTS
 0
POLYLINE
 8
PARTS
 66
1
 10
0.0
 20
0.0
 30
0.0
 0
VERTEX
 8
PARTS
 10
  7.4000
 20
  3.9000
 30
0.0
 0
VERTEX
 8
PARTS
 10
  7.4000
 20
  4.0000
 30
0.0
 0
SEQEND
 8
PARTS
 0
POLYLINE
 8
PARTS
 66
1
 10
0.0
 20
0.0
 30
0.0
 0
VERTEX
 8
PARTS
 10
  7.4000
 20
  4.0400
 30
0.0
 42
  0.1654
 0
VERTEX
 8
PARTS
 10
  7.5000
 20
  4.0700
 30
0.0
 0
SEQEND
 8
PARTS
 0
POLYLINE
 8
PARTS
 66
1
 10
0.0
 20
0.0
 30
0.0
 0
VERTEX
 8
PARTS
 10
  7.3000
 20
  4.0700
 30
0.0
 42
  0.1654
 0
VERTEX
 8
PARTS
 10
  7.4000
 20
  4.0400
 30
0.0
 0
SEQEND
 8
PARTS
 0
TEXT
 8
PARTTEXT
 10
  7.5500
 20
  4.0014
 30
0.0
 40
  0.0514
 50
180.0000
 1
+
 0
POLYLINE
 8
WIRE
 66
1
 10
0.0
 20
0.0
 30
0.0
 0
VERTEX
 8
WIRE
 10
  4.6000
 20
  6.6000
 30
0.0
 0
VERTEX
 8
WIRE
 10
  4.8000
 20
  6.6000
 30
0.0
 0
SEQEND
 8
WIRE
 0
POLYLINE
 8
WIRE
 66
1
 70
1
 10
0.0
 20
0.0
 30
0.0
 40
  0.0200
 41
  0.0200
 0
VERTEX
 8
WIRE
 10
  4.5900
 20
  6.6000
 30
0.0
 42
1.0
 0
VERTEX
 8
WIRE
 10
  4.6100
 20
  6.6000
 30
0.0
 42
1.0
 0
SEQEND
 8
WIRE
 0
POLYLINE
 8
WIRE
 66
1
 10
0.0
 20
0.0
 30
0.0
 0
VERTEX
 8
WIRE
 10
  2.4000
 20
  6.1000
 30
0.0
 0
VERTEX
 8
WIRE
 10
  2.8000
 20
  6.1000
 30
0.0
 0
SEQEND
 8
WIRE
 0
POLYLINE
 8
WIRE
 66
1
 70
1
 10
0.0
 20
0.0
 30
0.0
 40
  0.0200
 41
  0.0200
 0
VERTEX
 8
WIRE
 10
  2.7900
 20
  6.1000
 30
0.0
 42
1.0
 0
VERTEX
 8
WIRE
 10
  2.8100
 20
  6.1000
 30
0.0
 42
1.0
 0
SEQEND
 8
WIRE
 0
POLYLINE
 8
WIRE
 66
1
 10
0.0
 20
0.0
 30
0.0
 0
VERTEX
 8
WIRE
 10
  3.0000
 20
  5.9000
 30
0.0
 0
VERTEX
 8
WIRE
 10
  3.2000
 20
  5.9000
 30
0.0
 0
SEQEND
 8
WIRE
 0
POLYLINE
 8
WIRE
 66
1
 10
0.0
 20
0.0
 30
0.0
 0
VERTEX
 8
WIRE
 10
  4.4000
 20
  5.9000
 30
0.0
 0
VERTEX
 8
WIRE
 10
  4.6000
 20
  5.9000
 30
0.0
 0
SEQEND
 8
WIRE
 0
POLYLINE
 8
WIRE
 66
1
 10
0.0
 20
0.0
 30
0.0
 0
VERTEX
 8
WIRE
 10
  4.9000
 20
  5.9000
 30
0.0
 0
VERTEX
 8
WIRE
 10
  5.1000
 20
  5.9000
 30
0.0
 0
SEQEND
 8
WIRE
 0
POLYLINE
 8
WIRE
 66
1
 10
0.0
 20
0.0
 30
0.0
 0
VERTEX
 8
WIRE
 10
  6.4000
 20
  5.9000
 30
0.0
 0
VERTEX
 8
WIRE
 10
  7.0000
 20
  5.9000
 30
0.0
 0
SEQEND
 8
WIRE
 0
TEXT
 8
WIRETEXT
 10
  6.4000
 20
  5.9300
 30
0.0
 40
  0.0514
 1
QO+
 0
POLYLINE
 8
WIRE
 66
1
 10
0.0
 20
0.0
 30
0.0
 0
VERTEX
 8
WIRE
 10
  7.9000
 20
  5.9000
 30
0.0
 0
VERTEX
 8
WIRE
 10
  8.2000
 20
  5.9000
 30
0.0
 0
SEQEND
 8
WIRE
 0
TEXT
 8
WIRETEXT
 10
  7.9000
 20
  5.9300
 30
0.0
 40
  0.0514
 1
QO+
 0
POLYLINE
 8
WIRE
 66
1
 10
0.0
 20
0.0
 30
0.0
 0
VERTEX
 8
WIRE
 10
  2.4000
 20
  5.8000
 30
0.0
 0
VERTEX
 8
WIRE
 10
  2.5000
 20
  5.8000
 30
0.0
 0
SEQEND
 8
WIRE
 0
POLYLINE
 8
WIRE
 66
1
 10
0.0
 20
0.0
 30
0.0
 0
VERTEX
 8
WIRE
 10
  3.0000
 20
  5.8000
 30
0.0
 0
VERTEX
 8
WIRE
 10
  3.2000
 20
  5.8000
 30
0.0
 0
SEQEND
 8
WIRE
 0
POLYLINE
 8
WIRE
 66
1
 10
0.0
 20
0.0
 30
0.0
 0
VERTEX
 8
WIRE
 10
  4.4000
 20
  5.8000
 30
0.0
 0
VERTEX
 8
WIRE
 10
  4.8000
 20
  5.8000
 30
0.0
 0
SEQEND
 8
WIRE
 0
POLYLINE
 8
WIRE
 66
1
 70
1
 10
0.0
 20
0.0
 30
0.0
 40
  0.0200
 41
  0.0200
 0
VERTEX
 8
WIRE
 10
  4.7900
 20
  5.8000
 30
0.0
 42
1.0
 0
VERTEX
 8
WIRE
 10
  4.8100
 20
  5.8000
 30
0.0
 42
1.0
 0
SEQEND
 8
WIRE
 0
POLYLINE
 8
WIRE
 66
1
 10
0.0
 20
0.0
 30
0.0
 0
VERTEX
 8
WIRE
 10
  5.0000
 20
  5.8000
 30
0.0
 0
VERTEX
 8
WIRE
 10
  5.1000
 20
  5.8000
 30
0.0
 0
SEQEND
 8
WIRE
 0
POLYLINE
 8
WIRE
 66
1
 10
0.0
 20
0.0
 30
0.0
 0
VERTEX
 8
WIRE
 10
  6.4000
 20
  5.8000
 30
0.0
 0
VERTEX
 8
WIRE
 10
  7.0000
 20
  5.8000
 30
0.0
 0
SEQEND
 8
WIRE
 0
TEXT
 8
WIRETEXT
 10
  6.4000
 20
  5.8300
 30
0.0
 40
  0.0514
 1
QO-
 0
POLYLINE
 8
WIRE
 66
1
 10
0.0
 20
0.0
 30
0.0
 0
VERTEX
 8
WIRE
 10
  7.9000
 20
  5.8000
 30
0.0
 0
VERTEX
 8
WIRE
 10
  8.2000
 20
  5.8000
 30
0.0
 0
SEQEND
 8
WIRE
 0
TEXT
 8
WIRETEXT
 10
  7.9000
 20
  5.8300
 30
0.0
 40
  0.0514
 1
QO-
 0
POLYLINE
 8
WIRE
 66
1
 10
0.0
 20
0.0
 30
0.0
 0
VERTEX
 8
WIRE
 10
  4.6000
 20
  5.7000
 30
0.0
 0
VERTEX
 8
WIRE
 10
  5.0000
 20
  5.7000
 30
0.0
 0
SEQEND
 8
WIRE
 0
POLYLINE
 8
WIRE
 66
1
 10
0.0
 20
0.0
 30
0.0
 0
VERTEX
 8
WIRE
 10
  6.4000
 20
  5.7000
 30
0.0
 0
VERTEX
 8
WIRE
 10
  7.0000
 20
  5.7000
 30
0.0
 0
SEQEND
 8
WIRE
 0
TEXT
 8
WIRETEXT
 10
  6.4000
 20
  5.7300
 30
0.0
 40
  0.0514
 1
Q1+
 0
POLYLINE
 8
WIRE
 66
1
 10
0.0
 20
0.0
 30
0.0
 0
VERTEX
 8
WIRE
 10
  1.0000
 20
  5.6000
 30
0.0
 0
VERTEX
 8
WIRE
 10
  1.2000
 20
  5.6000
 30
0.0
 0
SEQEND
 8
WIRE
 0
POLYLINE
 8
WIRE
 66
1
 10
0.0
 20
0.0
 30
0.0
 0
VERTEX
 8
WIRE
 10
  2.4000
 20
  5.6000
 30
0.0
 0
VERTEX
 8
WIRE
 10
  2.8000
 20
  5.6000
 30
0.0
 0
SEQEND
 8
WIRE
 0
POLYLINE
 8
WIRE
 66
1
 70
1
 10
0.0
 20
0.0
 30
0.0
 40
  0.0200
 41
  0.0200
 0
VERTEX
 8
WIRE
 10
  2.7900
 20
  5.6000
 30
0.0
 42
1.0
 0
VERTEX
 8
WIRE
 10
  2.8100
 20
  5.6000
 30
0.0
 42
1.0
 0
SEQEND
 8
WIRE
 0
POLYLINE
 8
WIRE
 66
1
 10
0.0
 20
0.0
 30
0.0
 0
VERTEX
 8
WIRE
 10
  6.4000
 20
  5.6000
 30
0.0
 0
VERTEX
 8
WIRE
 10
  7.0000
 20
  5.6000
 30
0.0
 0
SEQEND
 8
WIRE
 0
TEXT
 8
WIRETEXT
 10
  6.4000
 20
  5.6300
 30
0.0
 40
  0.0514
 1
Q1-
 0
POLYLINE
 8
WIRE
 66
1
 10
0.0
 20
0.0
 30
0.0
 0
VERTEX
 8
WIRE
 10
  6.4000
 20
  5.5000
 30
0.0
 0
VERTEX
 8
WIRE
 10
  7.0000
 20
  5.5000
 30
0.0
 0
SEQEND
 8
WIRE
 0
TEXT
 8
WIRETEXT
 10
  6.4000
 20
  5.5300
 30
0.0
 40
  0.0514
 1
Q2+
 0
POLYLINE
 8
WIRE
 66
1
 10
0.0
 20
0.0
 30
0.0
 0
VERTEX
 8
WIRE
 10
  6.4000
 20
  5.4000
 30
0.0
 0
VERTEX
 8
WIRE
 10
  7.0000
 20
  5.4000
 30
0.0
 0
SEQEND
 8
WIRE
 0
TEXT
 8
WIRETEXT
 10
  6.4000
 20
  5.4300
 30
0.0
 40
  0.0514
 1
Q2-
 0
POLYLINE
 8
WIRE
 66
1
 10
0.0
 20
0.0
 30
0.0
 0
VERTEX
 8
WIRE
 10
  3.0000
 20
  5.3000
 30
0.0
 0
VERTEX
 8
WIRE
 10
  3.2000
 20
  5.3000
 30
0.0
 0
SEQEND
 8
WIRE
 0
POLYLINE
 8
WIRE
 66
1
 10
0.0
 20
0.0
 30
0.0
 0
VERTEX
 8
WIRE
 10
  4.7000
 20
  4.2000
 30
0.0
 0
VERTEX
 8
WIRE
 10
  5.0000
 20
  4.2000
 30
0.0
 0
SEQEND
 8
WIRE
 0
TEXT
 8
WIRETEXT
 10
  4.7000
 20
  4.2300
 30
0.0
 40
  0.0514
 1
Q2+
 0
POLYLINE
 8
WIRE
 66
1
 10
0.0
 20
0.0
 30
0.0
 0
VERTEX
 8
WIRE
 10
  5.6000
 20
  4.2000
 30
0.0
 0
VERTEX
 8
WIRE
 10
  5.9000
 20
  4.2000
 30
0.0
 0
SEQEND
 8
WIRE
 0
TEXT
 8
WIRETEXT
 10
  5.6000
 20
  4.2300
 30
0.0
 40
  0.0514
 1
Q1+
 0
POLYLINE
 8
WIRE
 66
1
 10
0.0
 20
0.0
 30
0.0
 0
VERTEX
 8
WIRE
 10
  1.0000
 20
  5.8000
 30
0.0
 0
VERTEX
 8
WIRE
 10
  1.0000
 20
  5.6000
 30
0.0
 0
SEQEND
 8
WIRE
 0
POLYLINE
 8
WIRE
 66
1
 10
0.0
 20
0.0
 30
0.0
 0
VERTEX
 8
WIRE
 10
  2.4000
 20
  6.1000
 30
0.0
 0
VERTEX
 8
WIRE
 10
  2.4000
 20
  6.0000
 30
0.0
 0
SEQEND
 8
WIRE
 0
POLYLINE
 8
WIRE
 66
1
 10
0.0
 20
0.0
 30
0.0
 0
VERTEX
 8
WIRE
 10
  2.5000
 20
  5.8000
 30
0.0
 0
VERTEX
 8
WIRE
 10
  2.5000
 20
  5.3000
 30
0.0
 0
SEQEND
 8
WIRE
 0
POLYLINE
 8
WIRE
 66
1
 10
0.0
 20
0.0
 30
0.0
 0
VERTEX
 8
WIRE
 10
  3.0000
 20
  6.1000
 30
0.0
 0
VERTEX
 8
WIRE
 10
  3.0000
 20
  5.9000
 30
0.0
 0
SEQEND
 8
WIRE
 0
POLYLINE
 8
WIRE
 66
1
 10
0.0
 20
0.0
 30
0.0
 0
VERTEX
 8
WIRE
 10
  3.0000
 20
  5.8000
 30
0.0
 0
VERTEX
 8
WIRE
 10
  3.0000
 20
  5.6000
 30
0.0
 0
SEQEND
 8
WIRE
 0
POLYLINE
 8
WIRE
 66
1
 10
0.0
 20
0.0
 30
0.0
 0
VERTEX
 8
WIRE
 10
  3.2000
 20
  5.7000
 30
0.0
 0
VERTEX
 8
WIRE
 10
  3.2000
 20
  5.3000
 30
0.0
 0
SEQEND
 8
WIRE
 0
POLYLINE
 8
WIRE
 66
1
 70
1
 10
0.0
 20
0.0
 30
0.0
 40
  0.0200
 41
  0.0200
 0
VERTEX
 8
WIRE
 10
  3.1900
 20
  5.3000
 30
0.0
 42
1.0
 0
VERTEX
 8
WIRE
 10
  3.2100
 20
  5.3000
 30
0.0
 42
1.0
 0
SEQEND
 8
WIRE
 0
POLYLINE
 8
WIRE
 66
1
 10
0.0
 20
0.0
 30
0.0
 0
VERTEX
 8
WIRE
 10
  4.6000
 20
  6.6000
 30
0.0
 0
VERTEX
 8
WIRE
 10
  4.6000
 20
  6.5000
 30
0.0
 0
SEQEND
 8
WIRE
 0
POLYLINE
 8
WIRE
 66
1
 10
0.0
 20
0.0
 30
0.0
 0
VERTEX
 8
WIRE
 10
  4.6000
 20
  6.0000
 30
0.0
 0
VERTEX
 8
WIRE
 10
  4.6000
 20
  5.9000
 30
0.0
 0
SEQEND
 8
WIRE
 0
POLYLINE
 8
WIRE
 66
1
 70
1
 10
0.0
 20
0.0
 30
0.0
 40
  0.0200
 41
  0.0200
 0
VERTEX
 8
WIRE
 10
  4.5900
 20
  5.9000
 30
0.0
 42
1.0
 0
VERTEX
 8
WIRE
 10
  4.6100
 20
  5.9000
 30
0.0
 42
1.0
 0
SEQEND
 8
WIRE
 0
POLYLINE
 8
WIRE
 66
1
 10
0.0
 20
0.0
 30
0.0
 0
VERTEX
 8
WIRE
 10
  4.8000
 20
  6.6000
 30
0.0
 0
VERTEX
 8
WIRE
 10
  4.8000
 20
  6.5000
 30
0.0
 0
SEQEND
 8
WIRE
 0
POLYLINE
 8
WIRE
 66
1
 10
0.0
 20
0.0
 30
0.0
 0
VERTEX
 8
WIRE
 10
  4.8000
 20
  6.0000
 30
0.0
 0
VERTEX
 8
WIRE
 10
  4.8000
 20
  5.8000
 30
0.0
 0
SEQEND
 8
WIRE
 0
POLYLINE
 8
WIRE
 66
1
 10
0.0
 20
0.0
 30
0.0
 0
VERTEX
 8
WIRE
 10
  4.9000
 20
  5.9000
 30
0.0
 0
VERTEX
 8
WIRE
 10
  4.9000
 20
  5.8000
 30
0.0
 0
SEQEND
 8
WIRE
 0
POLYLINE
 8
WIRE
 66
1
 10
0.0
 20
0.0
 30
0.0
 0
VERTEX
 8
WIRE
 10
  5.0000
 20
  5.8000
 30
0.0
 0
VERTEX
 8
WIRE
 10
  5.0000
 20
  5.7000
 30
0.0
 0
SEQEND
 8
WIRE
 0
POLYLINE
 8
WIRE
 66
1
 10
0.0
 20
0.0
 30
0.0
 0
VERTEX
 8
WIRE
 10
  2.8000
 20
  6.1000
 30
0.0
 0
VERTEX
 8
WIRE
 10
  3.0000
 20
  6.1000
 30
0.0
 0
SEQEND
 8
WIRE
 0
POLYLINE
 8
WIRE
 66
1
 10
0.0
 20
0.0
 30
0.0
 0
VERTEX
 8
WIRE
 10
  4.6000
 20
  5.9000
 30
0.0
 0
VERTEX
 8
WIRE
 10
  4.6000
 20
  5.7000
 30
0.0
 0
SEQEND
 8
WIRE
 0
POLYLINE
 8
WIRE
 66
1
 10
0.0
 20
0.0
 30
0.0
 0
VERTEX
 8
WIRE
 10
  4.8000
 20
  5.8000
 30
0.0
 0
VERTEX
 8
WIRE
 10
  4.9000
 20
  5.8000
 30
0.0
 0
SEQEND
 8
WIRE
 0
POLYLINE
 8
WIRE
 66
1
 10
0.0
 20
0.0
 30
0.0
 0
VERTEX
 8
WIRE
 10
  2.8000
 20
  5.6000
 30
0.0
 0
VERTEX
 8
WIRE
 10
  3.0000
 20
  5.6000
 30
0.0
 0
SEQEND
 8
WIRE
 0
POLYLINE
 8
PARTS
 66
1
 10
0.0
 20
0.0
 30
0.0
 0
VERTEX
 8
PARTS
 10
  3.1000
 20
  4.9000
 30
0.0
 0
VERTEX
 8
PARTS
 10
  3.3000
 20
  4.9000
 30
0.0
 0
SEQEND
 8
PARTS
 0
POLYLINE
 8
PARTS
 66
1
 10
0.0
 20
0.0
 30
0.0
 0
VERTEX
 8
PARTS
 10
  3.1300
 20
  4.8700
 30
0.0
 0
VERTEX
 8
PARTS
 10
  3.2700
 20
  4.8700
 30
0.0
 0
SEQEND
 8
PARTS
 0
POLYLINE
 8
PARTS
 66
1
 10
0.0
 20
0.0
 30
0.0
 0
VERTEX
 8
PARTS
 10
  3.2400
 20
  4.8400
 30
0.0
 0
VERTEX
 8
PARTS
 10
  3.1600
 20
  4.8400
 30
0.0
 0
SEQEND
 8
PARTS
 0
POLYLINE
 8
PARTS
 66
1
 10
0.0
 20
0.0
 30
0.0
 0
VERTEX
 8
PARTS
 10
  3.1900
 20
  4.8100
 30
0.0
 0
VERTEX
 8
PARTS
 10
  3.2100
 20
  4.8100
 30
0.0
 0
SEQEND
 8
PARTS
 0
POLYLINE
 8
PARTS
 66
1
 10
0.0
 20
0.0
 30
0.0
 0
VERTEX
 8
PARTS
 10
  6.7000
 20
  3.8000
 30
0.0
 0
VERTEX
 8
PARTS
 10
  6.9000
 20
  3.8000
 30
0.0
 0
SEQEND
 8
PARTS
 0
POLYLINE
 8
PARTS
 66
1
 10
0.0
 20
0.0
 30
0.0
 0
VERTEX
 8
PARTS
 10
  6.7300
 20
  3.7700
 30
0.0
 0
VERTEX
 8
PARTS
 10
  6.8700
 20
  3.7700
 30
0.0
 0
SEQEND
 8
PARTS
 0
POLYLINE
 8
PARTS
 66
1
 10
0.0
 20
0.0
 30
0.0
 0
VERTEX
 8
PARTS
 10
  6.8400
 20
  3.7400
 30
0.0
 0
VERTEX
 8
PARTS
 10
  6.7600
 20
  3.7400
 30
0.0
 0
SEQEND
 8
PARTS
 0
POLYLINE
 8
PARTS
 66
1
 10
0.0
 20
0.0
 30
0.0
 0
VERTEX
 8
PARTS
 10
  6.7900
 20
  3.7100
 30
0.0
 0
VERTEX
 8
PARTS
 10
  6.8100
 20
  3.7100
 30
0.0
 0
SEQEND
 8
PARTS
 0
POLYLINE
 8
PARTS
 66
1
 10
0.0
 20
0.0
 30
0.0
 0
VERTEX
 8
PARTS
 10
  7.3000
 20
  3.8000
 30
0.0
 0
VERTEX
 8
PARTS
 10
  7.5000
 20
  3.8000
 30
0.0
 0
SEQEND
 8
PARTS
 0
POLYLINE
 8
PARTS
 66
1
 10
0.0
 20
0.0
 30
0.0
 0
VERTEX
 8
PARTS
 10
  7.3300
 20
  3.7700
 30
0.0
 0
VERTEX
 8
PARTS
 10
  7.4700
 20
  3.7700
 30
0.0
 0
SEQEND
 8
PARTS
 0
POLYLINE
 8
PARTS
 66
1
 10
0.0
 20
0.0
 30
0.0
 0
VERTEX
 8
PARTS
 10
  7.4400
 20
  3.7400
 30
0.0
 0
VERTEX
 8
PARTS
 10
  7.3600
 20
  3.7400
 30
0.0
 0
SEQEND
 8
PARTS
 0
POLYLINE
 8
PARTS
 66
1
 10
0.0
 20
0.0
 30
0.0
 0
VERTEX
 8
PARTS
 10
  7.3900
 20
  3.7100
 30
0.0
 0
VERTEX
 8
PARTS
 10
  7.4100
 20
  3.7100
 30
0.0
 0
SEQEND
 8
PARTS
 0
POLYLINE
 8
PARTS
 66
1
 10
0.0
 20
0.0
 30
0.0
 0
VERTEX
 8
PARTS
 10
  7.9000
 20
  3.8000
 30
0.0
 0
VERTEX
 8
PARTS
 10
  8.1000
 20
  3.8000
 30
0.0
 0
SEQEND
 8
PARTS
 0
POLYLINE
 8
PARTS
 66
1
 10
0.0
 20
0.0
 30
0.0
 0
VERTEX
 8
PARTS
 10
  7.9300
 20
  3.7700
 30
0.0
 0
VERTEX
 8
PARTS
 10
  8.0700
 20
  3.7700
 30
0.0
 0
SEQEND
 8
PARTS
 0
POLYLINE
 8
PARTS
 66
1
 10
0.0
 20
0.0
 30
0.0
 0
VERTEX
 8
PARTS
 10
  8.0400
 20
  3.7400
 30
0.0
 0
VERTEX
 8
PARTS
 10
  7.9600
 20
  3.7400
 30
0.0
 0
SEQEND
 8
PARTS
 0
POLYLINE
 8
PARTS
 66
1
 10
0.0
 20
0.0
 30
0.0
 0
VERTEX
 8
PARTS
 10
  7.9900
 20
  3.7100
 30
0.0
 0
VERTEX
 8
PARTS
 10
  8.0100
 20
  3.7100
 30
0.0
 0
SEQEND
 8
PARTS
 0
POLYLINE
 8
PARTS
 66
1
 10
0.0
 20
0.0
 30
0.0
 0
VERTEX
 8
PARTS
 10
  8.6000
 20
  3.8000
 30
0.0
 0
VERTEX
 8
PARTS
 10
  8.8000
 20
  3.8000
 30
0.0
 0
SEQEND
 8
PARTS
 0
POLYLINE
 8
PARTS
 66
1
 10
0.0
 20
0.0
 30
0.0
 0
VERTEX
 8
PARTS
 10
  8.6300
 20
  3.7700
 30
0.0
 0
VERTEX
 8
PARTS
 10
  8.7700
 20
  3.7700
 30
0.0
 0
SEQEND
 8
PARTS
 0
POLYLINE
 8
PARTS
 66
1
 10
0.0
 20
0.0
 30
0.0
 0
VERTEX
 8
PARTS
 10
  8.7400
 20
  3.7400
 30
0.0
 0
VERTEX
 8
PARTS
 10
  8.6600
 20
  3.7400
 30
0.0
 0
SEQEND
 8
PARTS
 0
POLYLINE
 8
PARTS
 66
1
 10
0.0
 20
0.0
 30
0.0
 0
VERTEX
 8
PARTS
 10
  8.6900
 20
  3.7100
 30
0.0
 0
VERTEX
 8
PARTS
 10
  8.7100
 20
  3.7100
 30
0.0
 0
SEQEND
 8
PARTS
 0
POLYLINE
 8
PARTS
 66
1
 10
0.0
 20
0.0
 30
0.0
 0
VERTEX
 8
PARTS
 10
  5.1000
 20
  4.0000
 30
0.0
 0
VERTEX
 8
PARTS
 10
  5.3000
 20
  4.0000
 30
0.0
 0
SEQEND
 8
PARTS
 0
POLYLINE
 8
PARTS
 66
1
 10
0.0
 20
0.0
 30
0.0
 0
VERTEX
 8
PARTS
 10
  5.1300
 20
  3.9700
 30
0.0
 0
VERTEX
 8
PARTS
 10
  5.2700
 20
  3.9700
 30
0.0
 0
SEQEND
 8
PARTS
 0
POLYLINE
 8
PARTS
 66
1
 10
0.0
 20
0.0
 30
0.0
 0
VERTEX
 8
PARTS
 10
  5.2400
 20
  3.9400
 30
0.0
 0
VERTEX
 8
PARTS
 10
  5.1600
 20
  3.9400
 30
0.0
 0
SEQEND
 8
PARTS
 0
POLYLINE
 8
PARTS
 66
1
 10
0.0
 20
0.0
 30
0.0
 0
VERTEX
 8
PARTS
 10
  5.1900
 20
  3.9100
 30
0.0
 0
VERTEX
 8
PARTS
 10
  5.2100
 20
  3.9100
 30
0.0
 0
SEQEND
 8
PARTS
 0
POLYLINE
 8
PARTS
 66
1
 10
0.0
 20
0.0
 30
0.0
 0
VERTEX
 8
PARTS
 10
  6.0000
 20
  4.0000
 30
0.0
 0
VERTEX
 8
PARTS
 10
  6.2000
 20
  4.0000
 30
0.0
 0
SEQEND
 8
PARTS
 0
POLYLINE
 8
PARTS
 66
1
 10
0.0
 20
0.0
 30
0.0
 0
VERTEX
 8
PARTS
 10
  6.0300
 20
  3.9700
 30
0.0
 0
VERTEX
 8
PARTS
 10
  6.1700
 20
  3.9700
 30
0.0
 0
SEQEND
 8
PARTS
 0
POLYLINE
 8
PARTS
 66
1
 10
0.0
 20
0.0
 30
0.0
 0
VERTEX
 8
PARTS
 10
  6.1400
 20
  3.9400
 30
0.0
 0
VERTEX
 8
PARTS
 10
  6.0600
 20
  3.9400
 30
0.0
 0
SEQEND
 8
PARTS
 0
POLYLINE
 8
PARTS
 66
1
 10
0.0
 20
0.0
 30
0.0
 0
VERTEX
 8
PARTS
 10
  6.0900
 20
  3.9100
 30
0.0
 0
VERTEX
 8
PARTS
 10
  6.1100
 20
  3.9100
 30
0.0
 0
SEQEND
 8
PARTS
 0
TEXT
 8
PARTTEXT
 10
  4.5100
 20
  6.7186
 30
0.0
 40
  0.0514
 1
VEE
 0
POLYLINE
 8
PARTS
 66
1
 10
0.0
 20
0.0
 30
0.0
 0
VERTEX
 8
PARTS
 10
  4.6000
 20
  6.6400
 30
0.0
 0
VERTEX
 8
PARTS
 10
  4.6000
 20
  6.6000
 30
0.0
 0
SEQEND
 8
PARTS
 0
POLYLINE
 8
PARTS
 66
1
 70
1
 10
0.0
 20
0.0
 30
0.0
 0
VERTEX
 8
PARTS
 10
  4.6300
 20
  6.6700
 30
0.0
 42
  0.0985
 0
VERTEX
 8
PARTS
 10
  4.6277
 20
  6.6815
 30
0.0
 42
  0.0985
 0
VERTEX
 8
PARTS
 10
  4.6212
 20
  6.6912
 30
0.0
 42
  0.0985
 0
VERTEX
 8
PARTS
 10
  4.6115
 20
  6.6977
 30
0.0
 42
  0.0985
 0
VERTEX
 8
PARTS
 10
  4.6000
 20
  6.7000
 30
0.0
 42
  0.0985
 0
VERTEX
 8
PARTS
 10
  4.5885
 20
  6.6977
 30
0.0
 42
  0.0985
 0
VERTEX
 8
PARTS
 10
  4.5788
 20
  6.6912
 30
0.0
 42
  0.0985
 0
VERTEX
 8
PARTS
 10
  4.5723
 20
  6.6815
 30
0.0
 42
  0.0985
 0
VERTEX
 8
PARTS
 10
  4.5700
 20
  6.6700
 30
0.0
 42
  0.0985
 0
VERTEX
 8
PARTS
 10
  4.5723
 20
  6.6585
 30
0.0
 42
  0.0985
 0
VERTEX
 8
PARTS
 10
  4.5788
 20
  6.6488
 30
0.0
 42
  0.0985
 0
VERTEX
 8
PARTS
 10
  4.5885
 20
  6.6423
 30
0.0
 42
  0.0985
 0
VERTEX
 8
PARTS
 10
  4.6000
 20
  6.6400
 30
0.0
 42
  0.0985
 0
VERTEX
 8
PARTS
 10
  4.6115
 20
  6.6423
 30
0.0
 42
  0.0985
 0
VERTEX
 8
PARTS
 10
  4.6212
 20
  6.6488
 30
0.0
 42
  0.0985
 0
VERTEX
 8
PARTS
 10
  4.6277
 20
  6.6585
 30
0.0
 42
  0.0985
 0
SEQEND
 8
PARTS
 0
TEXT
 8
PARTTEXT
 10
  6.7100
 20
  4.3186
 30
0.0
 40
  0.0514
 1
VEE
 0
POLYLINE
 8
PARTS
 66
1
 10
0.0
 20
0.0
 30
0.0
 0
VERTEX
 8
PARTS
 10
  6.8000
 20
  4.2400
 30
0.0
 0
VERTEX
 8
PARTS
 10
  6.8000
 20
  4.2000
 30
0.0
 0
SEQEND
 8
PARTS
 0
POLYLINE
 8
PARTS
 66
1
 70
1
 10
0.0
 20
0.0
 30
0.0
 0
VERTEX
 8
PARTS
 10
  6.8300
 20
  4.2700
 30
0.0
 42
  0.0985
 0
VERTEX
 8
PARTS
 10
  6.8277
 20
  4.2815
 30
0.0
 42
  0.0985
 0
VERTEX
 8
PARTS
 10
  6.8212
 20
  4.2912
 30
0.0
 42
  0.0985
 0
VERTEX
 8
PARTS
 10
  6.8115
 20
  4.2977
 30
0.0
 42
  0.0985
 0
VERTEX
 8
PARTS
 10
  6.8000
 20
  4.3000
 30
0.0
 42
  0.0985
 0
VERTEX
 8
PARTS
 10
  6.7885
 20
  4.2977
 30
0.0
 42
  0.0985
 0
VERTEX
 8
PARTS
 10
  6.7788
 20
  4.2912
 30
0.0
 42
  0.0985
 0
VERTEX
 8
PARTS
 10
  6.7723
 20
  4.2815
 30
0.0
 42
  0.0985
 0
VERTEX
 8
PARTS
 10
  6.7700
 20
  4.2700
 30
0.0
 42
  0.0985
 0
VERTEX
 8
PARTS
 10
  6.7723
 20
  4.2585
 30
0.0
 42
  0.0985
 0
VERTEX
 8
PARTS
 10
  6.7788
 20
  4.2488
 30
0.0
 42
  0.0985
 0
VERTEX
 8
PARTS
 10
  6.7885
 20
  4.2423
 30
0.0
 42
  0.0985
 0
VERTEX
 8
PARTS
 10
  6.8000
 20
  4.2400
 30
0.0
 42
  0.0985
 0
VERTEX
 8
PARTS
 10
  6.8115
 20
  4.2423
 30
0.0
 42
  0.0985
 0
VERTEX
 8
PARTS
 10
  6.8212
 20
  4.2488
 30
0.0
 42
  0.0985
 0
VERTEX
 8
PARTS
 10
  6.8277
 20
  4.2585
 30
0.0
 42
  0.0985
 0
SEQEND
 8
PARTS
 0
TEXT
 8
PARTTEXT
 10
  7.3100
 20
  4.3186
 30
0.0
 40
  0.0514
 1
VEE
 0
POLYLINE
 8
PARTS
 66
1
 10
0.0
 20
0.0
 30
0.0
 0
VERTEX
 8
PARTS
 10
  7.4000
 20
  4.2400
 30
0.0
 0
VERTEX
 8
PARTS
 10
  7.4000
 20
  4.2000
 30
0.0
 0
SEQEND
 8
PARTS
 0
POLYLINE
 8
PARTS
 66
1
 70
1
 10
0.0
 20
0.0
 30
0.0
 0
VERTEX
 8
PARTS
 10
  7.4300
 20
  4.2700
 30
0.0
 42
  0.0985
 0
VERTEX
 8
PARTS
 10
  7.4277
 20
  4.2815
 30
0.0
 42
  0.0985
 0
VERTEX
 8
PARTS
 10
  7.4212
 20
  4.2912
 30
0.0
 42
  0.0985
 0
VERTEX
 8
PARTS
 10
  7.4115
 20
  4.2977
 30
0.0
 42
  0.0985
 0
VERTEX
 8
PARTS
 10
  7.4000
 20
  4.3000
 30
0.0
 42
  0.0985
 0
VERTEX
 8
PARTS
 10
  7.3885
 20
  4.2977
 30
0.0
 42
  0.0985
 0
VERTEX
 8
PARTS
 10
  7.3788
 20
  4.2912
 30
0.0
 42
  0.0985
 0
VERTEX
 8
PARTS
 10
  7.3723
 20
  4.2815
 30
0.0
 42
  0.0985
 0
VERTEX
 8
PARTS
 10
  7.3700
 20
  4.2700
 30
0.0
 42
  0.0985
 0
VERTEX
 8
PARTS
 10
  7.3723
 20
  4.2585
 30
0.0
 42
  0.0985
 0
VERTEX
 8
PARTS
 10
  7.3788
 20
  4.2488
 30
0.0
 42
  0.0985
 0
VERTEX
 8
PARTS
 10
  7.3885
 20
  4.2423
 30
0.0
 42
  0.0985
 0
VERTEX
 8
PARTS
 10
  7.4000
 20
  4.2400
 30
0.0
 42
  0.0985
 0
VERTEX
 8
PARTS
 10
  7.4115
 20
  4.2423
 30
0.0
 42
  0.0985
 0
VERTEX
 8
PARTS
 10
  7.4212
 20
  4.2488
 30
0.0
 42
  0.0985
 0
VERTEX
 8
PARTS
 10
  7.4277
 20
  4.2585
 30
0.0
 42
  0.0985
 0
SEQEND
 8
PARTS
 0
TEXT
 8
PARTTEXT
 10
  7.9100
 20
  4.3186
 30
0.0
 40
  0.0514
 1
VEE
 0
POLYLINE
 8
PARTS
 66
1
 10
0.0
 20
0.0
 30
0.0
 0
VERTEX
 8
PARTS
 10
  8.0000
 20
  4.2400
 30
0.0
 0
VERTEX
 8
PARTS
 10
  8.0000
 20
  4.2000
 30
0.0
 0
SEQEND
 8
PARTS
 0
POLYLINE
 8
PARTS
 66
1
 70
1
 10
0.0
 20
0.0
 30
0.0
 0
VERTEX
 8
PARTS
 10
  8.0300
 20
  4.2700
 30
0.0
 42
  0.0985
 0
VERTEX
 8
PARTS
 10
  8.0277
 20
  4.2815
 30
0.0
 42
  0.0985
 0
VERTEX
 8
PARTS
 10
  8.0212
 20
  4.2912
 30
0.0
 42
  0.0985
 0
VERTEX
 8
PARTS
 10
  8.0115
 20
  4.2977
 30
0.0
 42
  0.0985
 0
VERTEX
 8
PARTS
 10
  8.0000
 20
  4.3000
 30
0.0
 42
  0.0985
 0
VERTEX
 8
PARTS
 10
  7.9885
 20
  4.2977
 30
0.0
 42
  0.0985
 0
VERTEX
 8
PARTS
 10
  7.9788
 20
  4.2912
 30
0.0
 42
  0.0985
 0
VERTEX
 8
PARTS
 10
  7.9723
 20
  4.2815
 30
0.0
 42
  0.0985
 0
VERTEX
 8
PARTS
 10
  7.9700
 20
  4.2700
 30
0.0
 42
  0.0985
 0
VERTEX
 8
PARTS
 10
  7.9723
 20
  4.2585
 30
0.0
 42
  0.0985
 0
VERTEX
 8
PARTS
 10
  7.9788
 20
  4.2488
 30
0.0
 42
  0.0985
 0
VERTEX
 8
PARTS
 10
  7.9885
 20
  4.2423
 30
0.0
 42
  0.0985
 0
VERTEX
 8
PARTS
 10
  8.0000
 20
  4.2400
 30
0.0
 42
  0.0985
 0
VERTEX
 8
PARTS
 10
  8.0115
 20
  4.2423
 30
0.0
 42
  0.0985
 0
VERTEX
 8
PARTS
 10
  8.0212
 20
  4.2488
 30
0.0
 42
  0.0985
 0
VERTEX
 8
PARTS
 10
  8.0277
 20
  4.2585
 30
0.0
 42
  0.0985
 0
SEQEND
 8
PARTS
 0
TEXT
 8
PARTTEXT
 10
  8.6100
 20
  4.3186
 30
0.0
 40
  0.0514
 1
VEE
 0
POLYLINE
 8
PARTS
 66
1
 10
0.0
 20
0.0
 30
0.0
 0
VERTEX
 8
PARTS
 10
  8.7000
 20
  4.2400
 30
0.0
 0
VERTEX
 8
PARTS
 10
  8.7000
 20
  4.2000
 30
0.0
 0
SEQEND
 8
PARTS
 0
POLYLINE
 8
PARTS
 66
1
 70
1
 10
0.0
 20
0.0
 30
0.0
 0
VERTEX
 8
PARTS
 10
  8.7300
 20
  4.2700
 30
0.0
 42
  0.0985
 0
VERTEX
 8
PARTS
 10
  8.7277
 20
  4.2815
 30
0.0
 42
  0.0985
 0
VERTEX
 8
PARTS
 10
  8.7212
 20
  4.2912
 30
0.0
 42
  0.0985
 0
VERTEX
 8
PARTS
 10
  8.7115
 20
  4.2977
 30
0.0
 42
  0.0985
 0
VERTEX
 8
PARTS
 10
  8.7000
 20
  4.3000
 30
0.0
 42
  0.0985
 0
VERTEX
 8
PARTS
 10
  8.6885
 20
  4.2977
 30
0.0
 42
  0.0985
 0
VERTEX
 8
PARTS
 10
  8.6788
 20
  4.2912
 30
0.0
 42
  0.0985
 0
VERTEX
 8
PARTS
 10
  8.6723
 20
  4.2815
 30
0.0
 42
  0.0985
 0
VERTEX
 8
PARTS
 10
  8.6700
 20
  4.2700
 30
0.0
 42
  0.0985
 0
VERTEX
 8
PARTS
 10
  8.6723
 20
  4.2585
 30
0.0
 42
  0.0985
 0
VERTEX
 8
PARTS
 10
  8.6788
 20
  4.2488
 30
0.0
 42
  0.0985
 0
VERTEX
 8
PARTS
 10
  8.6885
 20
  4.2423
 30
0.0
 42
  0.0985
 0
VERTEX
 8
PARTS
 10
  8.7000
 20
  4.2400
 30
0.0
 42
  0.0985
 0
VERTEX
 8
PARTS
 10
  8.7115
 20
  4.2423
 30
0.0
 42
  0.0985
 0
VERTEX
 8
PARTS
 10
  8.7212
 20
  4.2488
 30
0.0
 42
  0.0985
 0
VERTEX
 8
PARTS
 10
  8.7277
 20
  4.2585
 30
0.0
 42
  0.0985
 0
SEQEND
 8
PARTS
 0
TEXT
 8
PARTTEXT
 10
  6.9100
 20
  5.0186
 30
0.0
 40
  0.0514
 1
VEE
 0
POLYLINE
 8
PARTS
 66
1
 10
0.0
 20
0.0
 30
0.0
 0
VERTEX
 8
PARTS
 10
  7.0000
 20
  5.1600
 30
0.0
 0
VERTEX
 8
PARTS
 10
  7.0000
 20
  5.2000
 30
0.0
 0
SEQEND
 8
PARTS
 0
POLYLINE
 8
PARTS
 66
1
 70
1
 10
0.0
 20
0.0
 30
0.0
 0
VERTEX
 8
PARTS
 10
  7.0300
 20
  5.1300
 30
0.0
 42
  0.0985
 0
VERTEX
 8
PARTS
 10
  7.0277
 20
  5.1415
 30
0.0
 42
  0.0985
 0
VERTEX
 8
PARTS
 10
  7.0212
 20
  5.1512
 30
0.0
 42
  0.0985
 0
VERTEX
 8
PARTS
 10
  7.0115
 20
  5.1577
 30
0.0
 42
  0.0985
 0
VERTEX
 8
PARTS
 10
  7.0000
 20
  5.1600
 30
0.0
 42
  0.0985
 0
VERTEX
 8
PARTS
 10
  6.9885
 20
  5.1577
 30
0.0
 42
  0.0985
 0
VERTEX
 8
PARTS
 10
  6.9788
 20
  5.1512
 30
0.0
 42
  0.0985
 0
VERTEX
 8
PARTS
 10
  6.9723
 20
  5.1415
 30
0.0
 42
  0.0985
 0
VERTEX
 8
PARTS
 10
  6.9700
 20
  5.1300
 30
0.0
 42
  0.0985
 0
VERTEX
 8
PARTS
 10
  6.9723
 20
  5.1185
 30
0.0
 42
  0.0985
 0
VERTEX
 8
PARTS
 10
  6.9788
 20
  5.1088
 30
0.0
 42
  0.0985
 0
VERTEX
 8
PARTS
 10
  6.9885
 20
  5.1023
 30
0.0
 42
  0.0985
 0
VERTEX
 8
PARTS
 10
  7.0000
 20
  5.1000
 30
0.0
 42
  0.0985
 0
VERTEX
 8
PARTS
 10
  7.0115
 20
  5.1023
 30
0.0
 42
  0.0985
 0
VERTEX
 8
PARTS
 10
  7.0212
 20
  5.1088
 30
0.0
 42
  0.0985
 0
VERTEX
 8
PARTS
 10
  7.0277
 20
  5.1185
 30
0.0
 42
  0.0985
 0
SEQEND
 8
PARTS
 0
TEXT
 8
COMMENTS
 10
  0.3000
 20
  6.0186
 30
0.0
 40
  0.0514
 1
100MHz
 0
TEXT
 8
COMMENTS
 10
  0.3000
 20
  5.9186
 30
0.0
 40
  0.0514
 1
3dBm
 0
ENDSEC
 0
EOF
