 0
SECTION
 2
HEADER
 9
$ACADVER
 1
AC1009
 0
ENDSEC
 0
SECTION
 2
ENTITIES
 0
POLYLINE
 8
TITLE
 66
1
 70
1
 10
0.0
 20
0.0
 30
0.0
 0
VERTEX
 8
TITLE
 10
 -0.1000
 20
  0.1000
 30
0.0
 0
VERTEX
 8
TITLE
 10
 15.1000
 20
  0.1000
 30
0.0
 0
VERTEX
 8
TITLE
 10
 15.1000
 20
  9.8000
 30
0.0
 0
VERTEX
 8
TITLE
 10
 -0.1000
 20
  9.8000
 30
0.0
 0
SEQEND
 8
TITLE
 0
POLYLINE
 8
TITLE
 66
1
 70
1
 10
0.0
 20
0.0
 30
0.0
 0
VERTEX
 8
TITLE
 10
  0.0000
 20
  0.2000
 30
0.0
 0
VERTEX
 8
TITLE
 10
 15.0000
 20
  0.2000
 30
0.0
 0
VERTEX
 8
TITLE
 10
 15.0000
 20
  9.7000
 30
0.0
 0
VERTEX
 8
TITLE
 10
  0.0000
 20
  9.7000
 30
0.0
 0
SEQEND
 8
TITLE
 0
POLYLINE
 8
TITLE
 66
1
 10
0.0
 20
0.0
 30
0.0
 0
VERTEX
 8
TITLE
 10
  2.0500
 20
  0.2000
 30
0.0
 0
VERTEX
 8
TITLE
 10
  2.0500
 20
  0.1000
 30
0.0
 0
SEQEND
 8
TITLE
 0
POLYLINE
 8
TITLE
 66
1
 10
0.0
 20
0.0
 30
0.0
 0
VERTEX
 8
TITLE
 10
  2.0500
 20
  9.7000
 30
0.0
 0
VERTEX
 8
TITLE
 10
  2.0500
 20
  9.8000
 30
0.0
 0
SEQEND
 8
TITLE
 0
SOLID
 8
TITLE
 10
  7.6000
 20
  0.2000
 30
0.0
 11
  7.5800
 21
  0.1500
 31
0.0
 12
  7.6200
 22
  0.1500
 32
0.0
 13
  7.6000
 23
  0.1500
 33
0.0
 0
SOLID
 8
TITLE
 10
  7.6000
 20
  9.7000
 30
0.0
 11
  7.5800
 21
  9.7500
 31
0.0
 12
  7.6200
 22
  9.7500
 32
0.0
 13
  7.6000
 23
  9.7500
 33
0.0
 0
POLYLINE
 8
TITLE
 66
1
 10
0.0
 20
0.0
 30
0.0
 0
VERTEX
 8
TITLE
 10
  3.9000
 20
  0.2000
 30
0.0
 0
VERTEX
 8
TITLE
 10
  3.9000
 20
  0.1000
 30
0.0
 0
SEQEND
 8
TITLE
 0
POLYLINE
 8
TITLE
 66
1
 10
0.0
 20
0.0
 30
0.0
 0
VERTEX
 8
TITLE
 10
  3.9000
 20
  9.7000
 30
0.0
 0
VERTEX
 8
TITLE
 10
  3.9000
 20
  9.8000
 30
0.0
 0
SEQEND
 8
TITLE
 0
SOLID
 8
TITLE
 10
  7.6000
 20
  0.2000
 30
0.0
 11
  7.5800
 21
  0.1500
 31
0.0
 12
  7.6200
 22
  0.1500
 32
0.0
 13
  7.6000
 23
  0.1500
 33
0.0
 0
SOLID
 8
TITLE
 10
  7.6000
 20
  9.7000
 30
0.0
 11
  7.5800
 21
  9.7500
 31
0.0
 12
  7.6200
 22
  9.7500
 32
0.0
 13
  7.6000
 23
  9.7500
 33
0.0
 0
POLYLINE
 8
TITLE
 66
1
 10
0.0
 20
0.0
 30
0.0
 0
VERTEX
 8
TITLE
 10
  5.7500
 20
  0.2000
 30
0.0
 0
VERTEX
 8
TITLE
 10
  5.7500
 20
  0.1000
 30
0.0
 0
SEQEND
 8
TITLE
 0
POLYLINE
 8
TITLE
 66
1
 10
0.0
 20
0.0
 30
0.0
 0
VERTEX
 8
TITLE
 10
  5.7500
 20
  9.7000
 30
0.0
 0
VERTEX
 8
TITLE
 10
  5.7500
 20
  9.8000
 30
0.0
 0
SEQEND
 8
TITLE
 0
SOLID
 8
TITLE
 10
  7.6000
 20
  0.2000
 30
0.0
 11
  7.5800
 21
  0.1500
 31
0.0
 12
  7.6200
 22
  0.1500
 32
0.0
 13
  7.6000
 23
  0.1500
 33
0.0
 0
SOLID
 8
TITLE
 10
  7.6000
 20
  9.7000
 30
0.0
 11
  7.5800
 21
  9.7500
 31
0.0
 12
  7.6200
 22
  9.7500
 32
0.0
 13
  7.6000
 23
  9.7500
 33
0.0
 0
POLYLINE
 8
TITLE
 66
1
 10
0.0
 20
0.0
 30
0.0
 0
VERTEX
 8
TITLE
 10
  7.6000
 20
  0.2000
 30
0.0
 0
VERTEX
 8
TITLE
 10
  7.6000
 20
  0.1000
 30
0.0
 0
SEQEND
 8
TITLE
 0
POLYLINE
 8
TITLE
 66
1
 10
0.0
 20
0.0
 30
0.0
 0
VERTEX
 8
TITLE
 10
  7.6000
 20
  9.7000
 30
0.0
 0
VERTEX
 8
TITLE
 10
  7.6000
 20
  9.8000
 30
0.0
 0
SEQEND
 8
TITLE
 0
SOLID
 8
TITLE
 10
  7.6000
 20
  0.2000
 30
0.0
 11
  7.5800
 21
  0.1500
 31
0.0
 12
  7.6200
 22
  0.1500
 32
0.0
 13
  7.6000
 23
  0.1500
 33
0.0
 0
SOLID
 8
TITLE
 10
  7.6000
 20
  9.7000
 30
0.0
 11
  7.5800
 21
  9.7500
 31
0.0
 12
  7.6200
 22
  9.7500
 32
0.0
 13
  7.6000
 23
  9.7500
 33
0.0
 0
POLYLINE
 8
TITLE
 66
1
 10
0.0
 20
0.0
 30
0.0
 0
VERTEX
 8
TITLE
 10
  9.4500
 20
  0.2000
 30
0.0
 0
VERTEX
 8
TITLE
 10
  9.4500
 20
  0.1000
 30
0.0
 0
SEQEND
 8
TITLE
 0
POLYLINE
 8
TITLE
 66
1
 10
0.0
 20
0.0
 30
0.0
 0
VERTEX
 8
TITLE
 10
  9.4500
 20
  9.7000
 30
0.0
 0
VERTEX
 8
TITLE
 10
  9.4500
 20
  9.8000
 30
0.0
 0
SEQEND
 8
TITLE
 0
SOLID
 8
TITLE
 10
  7.6000
 20
  0.2000
 30
0.0
 11
  7.5800
 21
  0.1500
 31
0.0
 12
  7.6200
 22
  0.1500
 32
0.0
 13
  7.6000
 23
  0.1500
 33
0.0
 0
SOLID
 8
TITLE
 10
  7.6000
 20
  9.7000
 30
0.0
 11
  7.5800
 21
  9.7500
 31
0.0
 12
  7.6200
 22
  9.7500
 32
0.0
 13
  7.6000
 23
  9.7500
 33
0.0
 0
POLYLINE
 8
TITLE
 66
1
 10
0.0
 20
0.0
 30
0.0
 0
VERTEX
 8
TITLE
 10
 11.3000
 20
  0.2000
 30
0.0
 0
VERTEX
 8
TITLE
 10
 11.3000
 20
  0.1000
 30
0.0
 0
SEQEND
 8
TITLE
 0
POLYLINE
 8
TITLE
 66
1
 10
0.0
 20
0.0
 30
0.0
 0
VERTEX
 8
TITLE
 10
 11.3000
 20
  9.7000
 30
0.0
 0
VERTEX
 8
TITLE
 10
 11.3000
 20
  9.8000
 30
0.0
 0
SEQEND
 8
TITLE
 0
SOLID
 8
TITLE
 10
  7.6000
 20
  0.2000
 30
0.0
 11
  7.5800
 21
  0.1500
 31
0.0
 12
  7.6200
 22
  0.1500
 32
0.0
 13
  7.6000
 23
  0.1500
 33
0.0
 0
SOLID
 8
TITLE
 10
  7.6000
 20
  9.7000
 30
0.0
 11
  7.5800
 21
  9.7500
 31
0.0
 12
  7.6200
 22
  9.7500
 32
0.0
 13
  7.6000
 23
  9.7500
 33
0.0
 0
POLYLINE
 8
TITLE
 66
1
 10
0.0
 20
0.0
 30
0.0
 0
VERTEX
 8
TITLE
 10
 13.1500
 20
  0.2000
 30
0.0
 0
VERTEX
 8
TITLE
 10
 13.1500
 20
  0.1000
 30
0.0
 0
SEQEND
 8
TITLE
 0
POLYLINE
 8
TITLE
 66
1
 10
0.0
 20
0.0
 30
0.0
 0
VERTEX
 8
TITLE
 10
 13.1500
 20
  9.7000
 30
0.0
 0
VERTEX
 8
TITLE
 10
 13.1500
 20
  9.8000
 30
0.0
 0
SEQEND
 8
TITLE
 0
SOLID
 8
TITLE
 10
  7.6000
 20
  0.2000
 30
0.0
 11
  7.5800
 21
  0.1500
 31
0.0
 12
  7.6200
 22
  0.1500
 32
0.0
 13
  7.6000
 23
  0.1500
 33
0.0
 0
SOLID
 8
TITLE
 10
  7.6000
 20
  9.7000
 30
0.0
 11
  7.5800
 21
  9.7500
 31
0.0
 12
  7.6200
 22
  9.7500
 32
0.0
 13
  7.6000
 23
  9.7500
 33
0.0
 0
TEXT
 8
TITLE
 10
  1.1200
 20
  0.1200
 30
0.0
 40
  0.0500
 1
8
 0
TEXT
 8
TITLE
 10
  1.1200
 20
  9.7200
 30
0.0
 40
  0.0500
 1
8
 0
TEXT
 8
TITLE
 10
  2.9700
 20
  0.1200
 30
0.0
 40
  0.0500
 1
7
 0
TEXT
 8
TITLE
 10
  2.9700
 20
  9.7200
 30
0.0
 40
  0.0500
 1
7
 0
TEXT
 8
TITLE
 10
  4.8200
 20
  0.1200
 30
0.0
 40
  0.0500
 1
6
 0
TEXT
 8
TITLE
 10
  4.8200
 20
  9.7200
 30
0.0
 40
  0.0500
 1
6
 0
TEXT
 8
TITLE
 10
  6.6700
 20
  0.1200
 30
0.0
 40
  0.0500
 1
5
 0
TEXT
 8
TITLE
 10
  6.6700
 20
  9.7200
 30
0.0
 40
  0.0500
 1
5
 0
TEXT
 8
TITLE
 10
  8.5200
 20
  0.1200
 30
0.0
 40
  0.0500
 1
4
 0
TEXT
 8
TITLE
 10
  8.5200
 20
  9.7200
 30
0.0
 40
  0.0500
 1
4
 0
TEXT
 8
TITLE
 10
 10.3700
 20
  0.1200
 30
0.0
 40
  0.0500
 1
3
 0
TEXT
 8
TITLE
 10
 10.3700
 20
  9.7200
 30
0.0
 40
  0.0500
 1
3
 0
TEXT
 8
TITLE
 10
 12.2200
 20
  0.1200
 30
0.0
 40
  0.0500
 1
2
 0
TEXT
 8
TITLE
 10
 12.2200
 20
  9.7200
 30
0.0
 40
  0.0500
 1
2
 0
TEXT
 8
TITLE
 10
 14.0700
 20
  0.1200
 30
0.0
 40
  0.0500
 1
1
 0
TEXT
 8
TITLE
 10
 14.0700
 20
  9.7200
 30
0.0
 40
  0.0500
 1
1
 0
POLYLINE
 8
TITLE
 66
1
 10
0.0
 20
0.0
 30
0.0
 0
VERTEX
 8
TITLE
 10
 -0.1000
 20
  7.1800
 30
0.0
 0
VERTEX
 8
TITLE
 10
  0.0000
 20
  7.1800
 30
0.0
 0
SEQEND
 8
TITLE
 0
POLYLINE
 8
TITLE
 66
1
 10
0.0
 20
0.0
 30
0.0
 0
VERTEX
 8
TITLE
 10
 15.0000
 20
  7.1800
 30
0.0
 0
VERTEX
 8
TITLE
 10
 15.1000
 20
  7.1800
 30
0.0
 0
SEQEND
 8
TITLE
 0
SOLID
 8
TITLE
 10
  0.0000
 20
  4.8600
 30
0.0
 11
 -0.0500
 21
  4.8800
 31
0.0
 12
 -0.0500
 22
  4.8400
 32
0.0
 13
 -0.0500
 23
  4.8600
 33
0.0
 0
SOLID
 8
TITLE
 10
 15.0000
 20
  4.8600
 30
0.0
 11
 15.0500
 21
  4.8800
 31
0.0
 12
 15.0500
 22
  4.8400
 32
0.0
 13
 15.0500
 23
  4.8600
 33
0.0
 0
POLYLINE
 8
TITLE
 66
1
 10
0.0
 20
0.0
 30
0.0
 0
VERTEX
 8
TITLE
 10
 -0.1000
 20
  4.8600
 30
0.0
 0
VERTEX
 8
TITLE
 10
  0.0000
 20
  4.8600
 30
0.0
 0
SEQEND
 8
TITLE
 0
POLYLINE
 8
TITLE
 66
1
 10
0.0
 20
0.0
 30
0.0
 0
VERTEX
 8
TITLE
 10
 15.0000
 20
  4.8600
 30
0.0
 0
VERTEX
 8
TITLE
 10
 15.1000
 20
  4.8600
 30
0.0
 0
SEQEND
 8
TITLE
 0
SOLID
 8
TITLE
 10
  0.0000
 20
  4.8600
 30
0.0
 11
 -0.0500
 21
  4.8800
 31
0.0
 12
 -0.0500
 22
  4.8400
 32
0.0
 13
 -0.0500
 23
  4.8600
 33
0.0
 0
SOLID
 8
TITLE
 10
 15.0000
 20
  4.8600
 30
0.0
 11
 15.0500
 21
  4.8800
 31
0.0
 12
 15.0500
 22
  4.8400
 32
0.0
 13
 15.0500
 23
  4.8600
 33
0.0
 0
POLYLINE
 8
TITLE
 66
1
 10
0.0
 20
0.0
 30
0.0
 0
VERTEX
 8
TITLE
 10
 -0.1000
 20
  2.5400
 30
0.0
 0
VERTEX
 8
TITLE
 10
  0.0000
 20
  2.5400
 30
0.0
 0
SEQEND
 8
TITLE
 0
POLYLINE
 8
TITLE
 66
1
 10
0.0
 20
0.0
 30
0.0
 0
VERTEX
 8
TITLE
 10
 15.0000
 20
  2.5400
 30
0.0
 0
VERTEX
 8
TITLE
 10
 15.1000
 20
  2.5400
 30
0.0
 0
SEQEND
 8
TITLE
 0
SOLID
 8
TITLE
 10
  0.0000
 20
  4.8600
 30
0.0
 11
 -0.0500
 21
  4.8800
 31
0.0
 12
 -0.0500
 22
  4.8400
 32
0.0
 13
 -0.0500
 23
  4.8600
 33
0.0
 0
SOLID
 8
TITLE
 10
 15.0000
 20
  4.8600
 30
0.0
 11
 15.0500
 21
  4.8800
 31
0.0
 12
 15.0500
 22
  4.8400
 32
0.0
 13
 15.0500
 23
  4.8600
 33
0.0
 0
TEXT
 8
TITLE
 10
 -0.0800
 20
  8.3400
 30
0.0
 40
  0.0500
 1
D
 0
TEXT
 8
TITLE
 10
 15.0200
 20
  8.3400
 30
0.0
 40
  0.0500
 1
D
 0
TEXT
 8
TITLE
 10
 -0.0800
 20
  6.0200
 30
0.0
 40
  0.0500
 1
C
 0
TEXT
 8
TITLE
 10
 15.0200
 20
  6.0200
 30
0.0
 40
  0.0500
 1
C
 0
TEXT
 8
TITLE
 10
 -0.0800
 20
  3.7000
 30
0.0
 40
  0.0500
 1
B
 0
TEXT
 8
TITLE
 10
 15.0200
 20
  3.7000
 30
0.0
 40
  0.0500
 1
B
 0
TEXT
 8
TITLE
 10
 -0.0800
 20
  1.3800
 30
0.0
 40
  0.0500
 1
A
 0
TEXT
 8
TITLE
 10
 15.0200
 20
  1.3800
 30
0.0
 40
  0.0500
 1
A
 0
TEXT
 8
TITLE
 10
 11.7000
 20
  0.4186
 30
0.0
 40
  0.0514
 1
FRONT & REAR PANELS
 0
TEXT
 8
TITLE
 10
 11.7000
 20
  0.7186
 30
0.0
 40
  0.0514
 1
DDS CONTROLLER
 0
TEXT
 8
TITLE
 10
 11.3000
 20
  1.3186
 30
0.0
 40
  0.0514
 1
ARECIBO OBSERVATORY
 0
TEXT
 8
TITLE
 10
 11.3000
 20
  1.1186
 30
0.0
 40
  0.0514
 1
BY : BILL SISK
 0
TEXT
 8
TITLE
 10
 11.3000
 20
  1.0186
 30
0.0
 40
  0.0514
 1
FILE : DDSCTRL12.SCH
 0
TEXT
 8
TITLE
 10
 11.4000
 20
  0.4186
 30
0.0
 40
  0.0514
 1
B
 0
TEXT
 8
TITLE
 10
 13.8000
 20
  0.2186
 30
0.0
 40
  0.0514
 1
0
 0
TEXT
 8
TITLE
 10
 14.4000
 20
  0.2186
 30
0.0
 40
  0.0514
 1
0
 0
TEXT
 8
TITLE
 10
 11.7100
 20
  0.2186
 30
0.0
 40
  0.0514
 1
Wednesday, December 10, 2003
 0
TEXT
 8
PARTTEXT
 10
 11.3000
 20
  0.8186
 30
0.0
 40
  0.0514
 1
Title
 0
TEXT
 8
PARTTEXT
 10
 11.3000
 20
  0.5186
 30
0.0
 40
  0.0514
 1
Size
 0
TEXT
 8
PARTTEXT
 10
 11.7000
 20
  0.5186
 30
0.0
 40
  0.0514
 1
Document Number
 0
TEXT
 8
PARTTEXT
 10
 14.6000
 20
  0.5186
 30
0.0
 40
  0.0514
 1
Rev
 0
TEXT
 8
PARTTEXT
 10
 11.3000
 20
  0.2186
 30
0.0
 40
  0.0514
 1
Date:
 0
TEXT
 8
PARTTEXT
 10
 13.3000
 20
  0.2186
 30
0.0
 40
  0.0514
 1
Sheet
 0
POLYLINE
 8
TITLE
 66
1
 70
1
 10
0.0
 20
0.0
 30
0.0
 0
VERTEX
 8
TITLE
 10
 11.3000
 20
  1.4000
 30
0.0
 0
VERTEX
 8
TITLE
 10
 14.9000
 20
  1.4000
 30
0.0
 0
VERTEX
 8
TITLE
 10
 14.9000
 20
  0.9000
 30
0.0
 0
VERTEX
 8
TITLE
 10
 11.3000
 20
  0.9000
 30
0.0
 0
SEQEND
 8
TITLE
 0
POLYLINE
 8
TITLE
 66
1
 70
1
 10
0.0
 20
0.0
 30
0.0
 0
VERTEX
 8
TITLE
 10
 11.3000
 20
  0.9000
 30
0.0
 0
VERTEX
 8
TITLE
 10
 14.9000
 20
  0.9000
 30
0.0
 0
VERTEX
 8
TITLE
 10
 14.9000
 20
  0.6000
 30
0.0
 0
VERTEX
 8
TITLE
 10
 11.3000
 20
  0.6000
 30
0.0
 0
SEQEND
 8
TITLE
 0
POLYLINE
 8
TITLE
 66
1
 70
1
 10
0.0
 20
0.0
 30
0.0
 0
VERTEX
 8
TITLE
 10
 11.3000
 20
  0.6000
 30
0.0
 0
VERTEX
 8
TITLE
 10
 11.6000
 20
  0.6000
 30
0.0
 0
VERTEX
 8
TITLE
 10
 11.6000
 20
  0.3000
 30
0.0
 0
VERTEX
 8
TITLE
 10
 11.3000
 20
  0.3000
 30
0.0
 0
SEQEND
 8
TITLE
 0
POLYLINE
 8
TITLE
 66
1
 70
1
 10
0.0
 20
0.0
 30
0.0
 0
VERTEX
 8
TITLE
 10
 11.6000
 20
  0.6000
 30
0.0
 0
VERTEX
 8
TITLE
 10
 14.6000
 20
  0.6000
 30
0.0
 0
VERTEX
 8
TITLE
 10
 14.6000
 20
  0.3000
 30
0.0
 0
VERTEX
 8
TITLE
 10
 11.6000
 20
  0.3000
 30
0.0
 0
SEQEND
 8
TITLE
 0
POLYLINE
 8
TITLE
 66
1
 70
1
 10
0.0
 20
0.0
 30
0.0
 0
VERTEX
 8
TITLE
 10
 14.6000
 20
  0.6000
 30
0.0
 0
VERTEX
 8
TITLE
 10
 14.9000
 20
  0.6000
 30
0.0
 0
VERTEX
 8
TITLE
 10
 14.9000
 20
  0.3000
 30
0.0
 0
VERTEX
 8
TITLE
 10
 14.6000
 20
  0.3000
 30
0.0
 0
SEQEND
 8
TITLE
 0
POLYLINE
 8
TITLE
 66
1
 70
1
 10
0.0
 20
0.0
 30
0.0
 0
VERTEX
 8
TITLE
 10
 11.3000
 20
  0.3000
 30
0.0
 0
VERTEX
 8
TITLE
 10
 13.3000
 20
  0.3000
 30
0.0
 0
VERTEX
 8
TITLE
 10
 13.3000
 20
  0.2000
 30
0.0
 0
VERTEX
 8
TITLE
 10
 11.3000
 20
  0.2000
 30
0.0
 0
SEQEND
 8
TITLE
 0
POLYLINE
 8
TITLE
 66
1
 70
1
 10
0.0
 20
0.0
 30
0.0
 0
VERTEX
 8
TITLE
 10
 13.3000
 20
  0.3000
 30
0.0
 0
VERTEX
 8
TITLE
 10
 14.9000
 20
  0.3000
 30
0.0
 0
VERTEX
 8
TITLE
 10
 14.9000
 20
  0.2000
 30
0.0
 0
VERTEX
 8
TITLE
 10
 13.3000
 20
  0.2000
 30
0.0
 0
SEQEND
 8
TITLE
 0
TEXT
 8
PARTTEXT
 10
 14.1000
 20
  0.2186
 30
0.0
 40
  0.0514
 1
of
 0
POLYLINE
 8
PARTS
 66
1
 70
1
 10
0.0
 20
0.0
 30
0.0
 0
VERTEX
 8
PARTS
 10
 11.9000
 20
  8.0000
 30
0.0
 42
  0.0985
 0
VERTEX
 8
PARTS
 10
 11.8924
 20
  8.0383
 30
0.0
 42
  0.0985
 0
VERTEX
 8
PARTS
 10
 11.8707
 20
  8.0707
 30
0.0
 42
  0.0985
 0
VERTEX
 8
PARTS
 10
 11.8383
 20
  8.0924
 30
0.0
 42
  0.0985
 0
VERTEX
 8
PARTS
 10
 11.8000
 20
  8.1000
 30
0.0
 42
  0.0985
 0
VERTEX
 8
PARTS
 10
 11.7617
 20
  8.0924
 30
0.0
 42
  0.0985
 0
VERTEX
 8
PARTS
 10
 11.7293
 20
  8.0707
 30
0.0
 42
  0.0985
 0
VERTEX
 8
PARTS
 10
 11.7076
 20
  8.0383
 30
0.0
 42
  0.0985
 0
VERTEX
 8
PARTS
 10
 11.7000
 20
  8.0000
 30
0.0
 42
  0.0985
 0
VERTEX
 8
PARTS
 10
 11.7076
 20
  7.9617
 30
0.0
 42
  0.0985
 0
VERTEX
 8
PARTS
 10
 11.7293
 20
  7.9293
 30
0.0
 42
  0.0985
 0
VERTEX
 8
PARTS
 10
 11.7617
 20
  7.9076
 30
0.0
 42
  0.0985
 0
VERTEX
 8
PARTS
 10
 11.8000
 20
  7.9000
 30
0.0
 42
  0.0985
 0
VERTEX
 8
PARTS
 10
 11.8383
 20
  7.9076
 30
0.0
 42
  0.0985
 0
VERTEX
 8
PARTS
 10
 11.8707
 20
  7.9293
 30
0.0
 42
  0.0985
 0
VERTEX
 8
PARTS
 10
 11.8924
 20
  7.9617
 30
0.0
 42
  0.0985
 0
SEQEND
 8
PARTS
 0
POLYLINE
 8
PARTS
 66
1
 70
1
 10
0.0
 20
0.0
 30
0.0
 0
VERTEX
 8
PARTS
 10
  8.2000
 20
  5.2000
 30
0.0
 42
  0.0985
 0
VERTEX
 8
PARTS
 10
  8.1924
 20
  5.2383
 30
0.0
 42
  0.0985
 0
VERTEX
 8
PARTS
 10
  8.1707
 20
  5.2707
 30
0.0
 42
  0.0985
 0
VERTEX
 8
PARTS
 10
  8.1383
 20
  5.2924
 30
0.0
 42
  0.0985
 0
VERTEX
 8
PARTS
 10
  8.1000
 20
  5.3000
 30
0.0
 42
  0.0985
 0
VERTEX
 8
PARTS
 10
  8.0617
 20
  5.2924
 30
0.0
 42
  0.0985
 0
VERTEX
 8
PARTS
 10
  8.0293
 20
  5.2707
 30
0.0
 42
  0.0985
 0
VERTEX
 8
PARTS
 10
  8.0076
 20
  5.2383
 30
0.0
 42
  0.0985
 0
VERTEX
 8
PARTS
 10
  8.0000
 20
  5.2000
 30
0.0
 42
  0.0985
 0
VERTEX
 8
PARTS
 10
  8.0076
 20
  5.1617
 30
0.0
 42
  0.0985
 0
VERTEX
 8
PARTS
 10
  8.0293
 20
  5.1293
 30
0.0
 42
  0.0985
 0
VERTEX
 8
PARTS
 10
  8.0617
 20
  5.1076
 30
0.0
 42
  0.0985
 0
VERTEX
 8
PARTS
 10
  8.1000
 20
  5.1000
 30
0.0
 42
  0.0985
 0
VERTEX
 8
PARTS
 10
  8.1383
 20
  5.1076
 30
0.0
 42
  0.0985
 0
VERTEX
 8
PARTS
 10
  8.1707
 20
  5.1293
 30
0.0
 42
  0.0985
 0
VERTEX
 8
PARTS
 10
  8.1924
 20
  5.1617
 30
0.0
 42
  0.0985
 0
SEQEND
 8
PARTS
 0
POLYLINE
 8
PARTS
 66
1
 70
1
 10
0.0
 20
0.0
 30
0.0
 0
VERTEX
 8
PARTS
 10
 10.5000
 20
  6.0000
 30
0.0
 42
  0.0985
 0
VERTEX
 8
PARTS
 10
 10.4924
 20
  6.0383
 30
0.0
 42
  0.0985
 0
VERTEX
 8
PARTS
 10
 10.4707
 20
  6.0707
 30
0.0
 42
  0.0985
 0
VERTEX
 8
PARTS
 10
 10.4383
 20
  6.0924
 30
0.0
 42
  0.0985
 0
VERTEX
 8
PARTS
 10
 10.4000
 20
  6.1000
 30
0.0
 42
  0.0985
 0
VERTEX
 8
PARTS
 10
 10.3617
 20
  6.0924
 30
0.0
 42
  0.0985
 0
VERTEX
 8
PARTS
 10
 10.3293
 20
  6.0707
 30
0.0
 42
  0.0985
 0
VERTEX
 8
PARTS
 10
 10.3076
 20
  6.0383
 30
0.0
 42
  0.0985
 0
VERTEX
 8
PARTS
 10
 10.3000
 20
  6.0000
 30
0.0
 42
  0.0985
 0
VERTEX
 8
PARTS
 10
 10.3076
 20
  5.9617
 30
0.0
 42
  0.0985
 0
VERTEX
 8
PARTS
 10
 10.3293
 20
  5.9293
 30
0.0
 42
  0.0985
 0
VERTEX
 8
PARTS
 10
 10.3617
 20
  5.9076
 30
0.0
 42
  0.0985
 0
VERTEX
 8
PARTS
 10
 10.4000
 20
  5.9000
 30
0.0
 42
  0.0985
 0
VERTEX
 8
PARTS
 10
 10.4383
 20
  5.9076
 30
0.0
 42
  0.0985
 0
VERTEX
 8
PARTS
 10
 10.4707
 20
  5.9293
 30
0.0
 42
  0.0985
 0
VERTEX
 8
PARTS
 10
 10.4924
 20
  5.9617
 30
0.0
 42
  0.0985
 0
SEQEND
 8
PARTS
 0
POLYLINE
 8
PARTS
 66
1
 70
1
 10
0.0
 20
0.0
 30
0.0
 0
VERTEX
 8
PARTS
 10
 11.9000
 20
  7.6000
 30
0.0
 42
  0.0985
 0
VERTEX
 8
PARTS
 10
 11.8924
 20
  7.6383
 30
0.0
 42
  0.0985
 0
VERTEX
 8
PARTS
 10
 11.8707
 20
  7.6707
 30
0.0
 42
  0.0985
 0
VERTEX
 8
PARTS
 10
 11.8383
 20
  7.6924
 30
0.0
 42
  0.0985
 0
VERTEX
 8
PARTS
 10
 11.8000
 20
  7.7000
 30
0.0
 42
  0.0985
 0
VERTEX
 8
PARTS
 10
 11.7617
 20
  7.6924
 30
0.0
 42
  0.0985
 0
VERTEX
 8
PARTS
 10
 11.7293
 20
  7.6707
 30
0.0
 42
  0.0985
 0
VERTEX
 8
PARTS
 10
 11.7076
 20
  7.6383
 30
0.0
 42
  0.0985
 0
VERTEX
 8
PARTS
 10
 11.7000
 20
  7.6000
 30
0.0
 42
  0.0985
 0
VERTEX
 8
PARTS
 10
 11.7076
 20
  7.5617
 30
0.0
 42
  0.0985
 0
VERTEX
 8
PARTS
 10
 11.7293
 20
  7.5293
 30
0.0
 42
  0.0985
 0
VERTEX
 8
PARTS
 10
 11.7617
 20
  7.5076
 30
0.0
 42
  0.0985
 0
VERTEX
 8
PARTS
 10
 11.8000
 20
  7.5000
 30
0.0
 42
  0.0985
 0
VERTEX
 8
PARTS
 10
 11.8383
 20
  7.5076
 30
0.0
 42
  0.0985
 0
VERTEX
 8
PARTS
 10
 11.8707
 20
  7.5293
 30
0.0
 42
  0.0985
 0
VERTEX
 8
PARTS
 10
 11.8924
 20
  7.5617
 30
0.0
 42
  0.0985
 0
SEQEND
 8
PARTS
 0
POLYLINE
 8
PARTS
 66
1
 70
1
 10
0.0
 20
0.0
 30
0.0
 0
VERTEX
 8
PARTS
 10
 11.9000
 20
  8.4000
 30
0.0
 42
  0.0985
 0
VERTEX
 8
PARTS
 10
 11.8924
 20
  8.4383
 30
0.0
 42
  0.0985
 0
VERTEX
 8
PARTS
 10
 11.8707
 20
  8.4707
 30
0.0
 42
  0.0985
 0
VERTEX
 8
PARTS
 10
 11.8383
 20
  8.4924
 30
0.0
 42
  0.0985
 0
VERTEX
 8
PARTS
 10
 11.8000
 20
  8.5000
 30
0.0
 42
  0.0985
 0
VERTEX
 8
PARTS
 10
 11.7617
 20
  8.4924
 30
0.0
 42
  0.0985
 0
VERTEX
 8
PARTS
 10
 11.7293
 20
  8.4707
 30
0.0
 42
  0.0985
 0
VERTEX
 8
PARTS
 10
 11.7076
 20
  8.4383
 30
0.0
 42
  0.0985
 0
VERTEX
 8
PARTS
 10
 11.7000
 20
  8.4000
 30
0.0
 42
  0.0985
 0
VERTEX
 8
PARTS
 10
 11.7076
 20
  8.3617
 30
0.0
 42
  0.0985
 0
VERTEX
 8
PARTS
 10
 11.7293
 20
  8.3293
 30
0.0
 42
  0.0985
 0
VERTEX
 8
PARTS
 10
 11.7617
 20
  8.3076
 30
0.0
 42
  0.0985
 0
VERTEX
 8
PARTS
 10
 11.8000
 20
  8.3000
 30
0.0
 42
  0.0985
 0
VERTEX
 8
PARTS
 10
 11.8383
 20
  8.3076
 30
0.0
 42
  0.0985
 0
VERTEX
 8
PARTS
 10
 11.8707
 20
  8.3293
 30
0.0
 42
  0.0985
 0
VERTEX
 8
PARTS
 10
 11.8924
 20
  8.3617
 30
0.0
 42
  0.0985
 0
SEQEND
 8
PARTS
 0
POLYLINE
 8
PARTS
 66
1
 70
1
 10
0.0
 20
0.0
 30
0.0
 0
VERTEX
 8
PARTS
 10
  9.4000
 20
  6.0000
 30
0.0
 42
  0.0985
 0
VERTEX
 8
PARTS
 10
  9.3924
 20
  6.0383
 30
0.0
 42
  0.0985
 0
VERTEX
 8
PARTS
 10
  9.3707
 20
  6.0707
 30
0.0
 42
  0.0985
 0
VERTEX
 8
PARTS
 10
  9.3383
 20
  6.0924
 30
0.0
 42
  0.0985
 0
VERTEX
 8
PARTS
 10
  9.3000
 20
  6.1000
 30
0.0
 42
  0.0985
 0
VERTEX
 8
PARTS
 10
  9.2617
 20
  6.0924
 30
0.0
 42
  0.0985
 0
VERTEX
 8
PARTS
 10
  9.2293
 20
  6.0707
 30
0.0
 42
  0.0985
 0
VERTEX
 8
PARTS
 10
  9.2076
 20
  6.0383
 30
0.0
 42
  0.0985
 0
VERTEX
 8
PARTS
 10
  9.2000
 20
  6.0000
 30
0.0
 42
  0.0985
 0
VERTEX
 8
PARTS
 10
  9.2076
 20
  5.9617
 30
0.0
 42
  0.0985
 0
VERTEX
 8
PARTS
 10
  9.2293
 20
  5.9293
 30
0.0
 42
  0.0985
 0
VERTEX
 8
PARTS
 10
  9.2617
 20
  5.9076
 30
0.0
 42
  0.0985
 0
VERTEX
 8
PARTS
 10
  9.3000
 20
  5.9000
 30
0.0
 42
  0.0985
 0
VERTEX
 8
PARTS
 10
  9.3383
 20
  5.9076
 30
0.0
 42
  0.0985
 0
VERTEX
 8
PARTS
 10
  9.3707
 20
  5.9293
 30
0.0
 42
  0.0985
 0
VERTEX
 8
PARTS
 10
  9.3924
 20
  5.9617
 30
0.0
 42
  0.0985
 0
SEQEND
 8
PARTS
 0
POLYLINE
 8
PARTS
 66
1
 70
1
 10
0.0
 20
0.0
 30
0.0
 0
VERTEX
 8
PARTS
 10
  8.2000
 20
  6.0000
 30
0.0
 42
  0.0985
 0
VERTEX
 8
PARTS
 10
  8.1924
 20
  6.0383
 30
0.0
 42
  0.0985
 0
VERTEX
 8
PARTS
 10
  8.1707
 20
  6.0707
 30
0.0
 42
  0.0985
 0
VERTEX
 8
PARTS
 10
  8.1383
 20
  6.0924
 30
0.0
 42
  0.0985
 0
VERTEX
 8
PARTS
 10
  8.1000
 20
  6.1000
 30
0.0
 42
  0.0985
 0
VERTEX
 8
PARTS
 10
  8.0617
 20
  6.0924
 30
0.0
 42
  0.0985
 0
VERTEX
 8
PARTS
 10
  8.0293
 20
  6.0707
 30
0.0
 42
  0.0985
 0
VERTEX
 8
PARTS
 10
  8.0076
 20
  6.0383
 30
0.0
 42
  0.0985
 0
VERTEX
 8
PARTS
 10
  8.0000
 20
  6.0000
 30
0.0
 42
  0.0985
 0
VERTEX
 8
PARTS
 10
  8.0076
 20
  5.9617
 30
0.0
 42
  0.0985
 0
VERTEX
 8
PARTS
 10
  8.0293
 20
  5.9293
 30
0.0
 42
  0.0985
 0
VERTEX
 8
PARTS
 10
  8.0617
 20
  5.9076
 30
0.0
 42
  0.0985
 0
VERTEX
 8
PARTS
 10
  8.1000
 20
  5.9000
 30
0.0
 42
  0.0985
 0
VERTEX
 8
PARTS
 10
  8.1383
 20
  5.9076
 30
0.0
 42
  0.0985
 0
VERTEX
 8
PARTS
 10
  8.1707
 20
  5.9293
 30
0.0
 42
  0.0985
 0
VERTEX
 8
PARTS
 10
  8.1924
 20
  5.9617
 30
0.0
 42
  0.0985
 0
SEQEND
 8
PARTS
 0
POLYLINE
 8
PARTS
 66
1
 70
1
 10
0.0
 20
0.0
 30
0.0
 0
VERTEX
 8
PARTS
 10
  6.2000
 20
  8.1500
 30
0.0
 42
  0.0985
 0
VERTEX
 8
PARTS
 10
  6.1886
 20
  8.2074
 30
0.0
 42
  0.0985
 0
VERTEX
 8
PARTS
 10
  6.1561
 20
  8.2561
 30
0.0
 42
  0.0985
 0
VERTEX
 8
PARTS
 10
  6.1074
 20
  8.2886
 30
0.0
 42
  0.0985
 0
VERTEX
 8
PARTS
 10
  6.0500
 20
  8.3000
 30
0.0
 42
  0.0985
 0
VERTEX
 8
PARTS
 10
  5.9926
 20
  8.2886
 30
0.0
 42
  0.0985
 0
VERTEX
 8
PARTS
 10
  5.9439
 20
  8.2561
 30
0.0
 42
  0.0985
 0
VERTEX
 8
PARTS
 10
  5.9114
 20
  8.2074
 30
0.0
 42
  0.0985
 0
VERTEX
 8
PARTS
 10
  5.9000
 20
  8.1500
 30
0.0
 42
  0.0985
 0
VERTEX
 8
PARTS
 10
  5.9114
 20
  8.0926
 30
0.0
 42
  0.0985
 0
VERTEX
 8
PARTS
 10
  5.9439
 20
  8.0439
 30
0.0
 42
  0.0985
 0
VERTEX
 8
PARTS
 10
  5.9926
 20
  8.0114
 30
0.0
 42
  0.0985
 0
VERTEX
 8
PARTS
 10
  6.0500
 20
  8.0000
 30
0.0
 42
  0.0985
 0
VERTEX
 8
PARTS
 10
  6.1074
 20
  8.0114
 30
0.0
 42
  0.0985
 0
VERTEX
 8
PARTS
 10
  6.1561
 20
  8.0439
 30
0.0
 42
  0.0985
 0
VERTEX
 8
PARTS
 10
  6.1886
 20
  8.0926
 30
0.0
 42
  0.0985
 0
SEQEND
 8
PARTS
 0
POLYLINE
 8
PARTS
 66
1
 70
1
 10
0.0
 20
0.0
 30
0.0
 0
VERTEX
 8
PARTS
 10
 10.5000
 20
  5.2000
 30
0.0
 42
  0.0985
 0
VERTEX
 8
PARTS
 10
 10.4924
 20
  5.2383
 30
0.0
 42
  0.0985
 0
VERTEX
 8
PARTS
 10
 10.4707
 20
  5.2707
 30
0.0
 42
  0.0985
 0
VERTEX
 8
PARTS
 10
 10.4383
 20
  5.2924
 30
0.0
 42
  0.0985
 0
VERTEX
 8
PARTS
 10
 10.4000
 20
  5.3000
 30
0.0
 42
  0.0985
 0
VERTEX
 8
PARTS
 10
 10.3617
 20
  5.2924
 30
0.0
 42
  0.0985
 0
VERTEX
 8
PARTS
 10
 10.3293
 20
  5.2707
 30
0.0
 42
  0.0985
 0
VERTEX
 8
PARTS
 10
 10.3076
 20
  5.2383
 30
0.0
 42
  0.0985
 0
VERTEX
 8
PARTS
 10
 10.3000
 20
  5.2000
 30
0.0
 42
  0.0985
 0
VERTEX
 8
PARTS
 10
 10.3076
 20
  5.1617
 30
0.0
 42
  0.0985
 0
VERTEX
 8
PARTS
 10
 10.3293
 20
  5.1293
 30
0.0
 42
  0.0985
 0
VERTEX
 8
PARTS
 10
 10.3617
 20
  5.1076
 30
0.0
 42
  0.0985
 0
VERTEX
 8
PARTS
 10
 10.4000
 20
  5.1000
 30
0.0
 42
  0.0985
 0
VERTEX
 8
PARTS
 10
 10.4383
 20
  5.1076
 30
0.0
 42
  0.0985
 0
VERTEX
 8
PARTS
 10
 10.4707
 20
  5.1293
 30
0.0
 42
  0.0985
 0
VERTEX
 8
PARTS
 10
 10.4924
 20
  5.1617
 30
0.0
 42
  0.0985
 0
SEQEND
 8
PARTS
 0
POLYLINE
 8
PARTS
 66
1
 70
1
 10
0.0
 20
0.0
 30
0.0
 0
VERTEX
 8
PARTS
 10
  7.1000
 20
  6.0000
 30
0.0
 42
  0.0985
 0
VERTEX
 8
PARTS
 10
  7.0924
 20
  6.0383
 30
0.0
 42
  0.0985
 0
VERTEX
 8
PARTS
 10
  7.0707
 20
  6.0707
 30
0.0
 42
  0.0985
 0
VERTEX
 8
PARTS
 10
  7.0383
 20
  6.0924
 30
0.0
 42
  0.0985
 0
VERTEX
 8
PARTS
 10
  7.0000
 20
  6.1000
 30
0.0
 42
  0.0985
 0
VERTEX
 8
PARTS
 10
  6.9617
 20
  6.0924
 30
0.0
 42
  0.0985
 0
VERTEX
 8
PARTS
 10
  6.9293
 20
  6.0707
 30
0.0
 42
  0.0985
 0
VERTEX
 8
PARTS
 10
  6.9076
 20
  6.0383
 30
0.0
 42
  0.0985
 0
VERTEX
 8
PARTS
 10
  6.9000
 20
  6.0000
 30
0.0
 42
  0.0985
 0
VERTEX
 8
PARTS
 10
  6.9076
 20
  5.9617
 30
0.0
 42
  0.0985
 0
VERTEX
 8
PARTS
 10
  6.9293
 20
  5.9293
 30
0.0
 42
  0.0985
 0
VERTEX
 8
PARTS
 10
  6.9617
 20
  5.9076
 30
0.0
 42
  0.0985
 0
VERTEX
 8
PARTS
 10
  7.0000
 20
  5.9000
 30
0.0
 42
  0.0985
 0
VERTEX
 8
PARTS
 10
  7.0383
 20
  5.9076
 30
0.0
 42
  0.0985
 0
VERTEX
 8
PARTS
 10
  7.0707
 20
  5.9293
 30
0.0
 42
  0.0985
 0
VERTEX
 8
PARTS
 10
  7.0924
 20
  5.9617
 30
0.0
 42
  0.0985
 0
SEQEND
 8
PARTS
 0
POLYLINE
 8
PARTS
 66
1
 70
1
 10
0.0
 20
0.0
 30
0.0
 0
VERTEX
 8
PARTS
 10
 11.9000
 20
  8.8000
 30
0.0
 42
  0.0985
 0
VERTEX
 8
PARTS
 10
 11.8924
 20
  8.8383
 30
0.0
 42
  0.0985
 0
VERTEX
 8
PARTS
 10
 11.8707
 20
  8.8707
 30
0.0
 42
  0.0985
 0
VERTEX
 8
PARTS
 10
 11.8383
 20
  8.8924
 30
0.0
 42
  0.0985
 0
VERTEX
 8
PARTS
 10
 11.8000
 20
  8.9000
 30
0.0
 42
  0.0985
 0
VERTEX
 8
PARTS
 10
 11.7617
 20
  8.8924
 30
0.0
 42
  0.0985
 0
VERTEX
 8
PARTS
 10
 11.7293
 20
  8.8707
 30
0.0
 42
  0.0985
 0
VERTEX
 8
PARTS
 10
 11.7076
 20
  8.8383
 30
0.0
 42
  0.0985
 0
VERTEX
 8
PARTS
 10
 11.7000
 20
  8.8000
 30
0.0
 42
  0.0985
 0
VERTEX
 8
PARTS
 10
 11.7076
 20
  8.7617
 30
0.0
 42
  0.0985
 0
VERTEX
 8
PARTS
 10
 11.7293
 20
  8.7293
 30
0.0
 42
  0.0985
 0
VERTEX
 8
PARTS
 10
 11.7617
 20
  8.7076
 30
0.0
 42
  0.0985
 0
VERTEX
 8
PARTS
 10
 11.8000
 20
  8.7000
 30
0.0
 42
  0.0985
 0
VERTEX
 8
PARTS
 10
 11.8383
 20
  8.7076
 30
0.0
 42
  0.0985
 0
VERTEX
 8
PARTS
 10
 11.8707
 20
  8.7293
 30
0.0
 42
  0.0985
 0
VERTEX
 8
PARTS
 10
 11.8924
 20
  8.7617
 30
0.0
 42
  0.0985
 0
SEQEND
 8
PARTS
 0
POLYLINE
 8
PARTS
 66
1
 70
1
 10
0.0
 20
0.0
 30
0.0
 0
VERTEX
 8
PARTS
 10
 12.9000
 20
  8.7500
 30
0.0
 42
  0.0985
 0
VERTEX
 8
PARTS
 10
 12.8962
 20
  8.7691
 30
0.0
 42
  0.0985
 0
VERTEX
 8
PARTS
 10
 12.8854
 20
  8.7854
 30
0.0
 42
  0.0985
 0
VERTEX
 8
PARTS
 10
 12.8691
 20
  8.7962
 30
0.0
 42
  0.0985
 0
VERTEX
 8
PARTS
 10
 12.8500
 20
  8.8000
 30
0.0
 42
  0.0985
 0
VERTEX
 8
PARTS
 10
 12.8309
 20
  8.7962
 30
0.0
 42
  0.0985
 0
VERTEX
 8
PARTS
 10
 12.8146
 20
  8.7854
 30
0.0
 42
  0.0985
 0
VERTEX
 8
PARTS
 10
 12.8038
 20
  8.7691
 30
0.0
 42
  0.0985
 0
VERTEX
 8
PARTS
 10
 12.8000
 20
  8.7500
 30
0.0
 42
  0.0985
 0
VERTEX
 8
PARTS
 10
 12.8038
 20
  8.7309
 30
0.0
 42
  0.0985
 0
VERTEX
 8
PARTS
 10
 12.8146
 20
  8.7146
 30
0.0
 42
  0.0985
 0
VERTEX
 8
PARTS
 10
 12.8309
 20
  8.7038
 30
0.0
 42
  0.0985
 0
VERTEX
 8
PARTS
 10
 12.8500
 20
  8.7000
 30
0.0
 42
  0.0985
 0
VERTEX
 8
PARTS
 10
 12.8691
 20
  8.7038
 30
0.0
 42
  0.0985
 0
VERTEX
 8
PARTS
 10
 12.8854
 20
  8.7146
 30
0.0
 42
  0.0985
 0
VERTEX
 8
PARTS
 10
 12.8962
 20
  8.7309
 30
0.0
 42
  0.0985
 0
SEQEND
 8
PARTS
 0
POLYLINE
 8
PARTS
 66
1
 70
1
 10
0.0
 20
0.0
 30
0.0
 0
VERTEX
 8
PARTS
 10
  4.6000
 20
  8.1500
 30
0.0
 42
  0.0985
 0
VERTEX
 8
PARTS
 10
  4.5886
 20
  8.2074
 30
0.0
 42
  0.0985
 0
VERTEX
 8
PARTS
 10
  4.5561
 20
  8.2561
 30
0.0
 42
  0.0985
 0
VERTEX
 8
PARTS
 10
  4.5074
 20
  8.2886
 30
0.0
 42
  0.0985
 0
VERTEX
 8
PARTS
 10
  4.4500
 20
  8.3000
 30
0.0
 42
  0.0985
 0
VERTEX
 8
PARTS
 10
  4.3926
 20
  8.2886
 30
0.0
 42
  0.0985
 0
VERTEX
 8
PARTS
 10
  4.3439
 20
  8.2561
 30
0.0
 42
  0.0985
 0
VERTEX
 8
PARTS
 10
  4.3114
 20
  8.2074
 30
0.0
 42
  0.0985
 0
VERTEX
 8
PARTS
 10
  4.3000
 20
  8.1500
 30
0.0
 42
  0.0985
 0
VERTEX
 8
PARTS
 10
  4.3114
 20
  8.0926
 30
0.0
 42
  0.0985
 0
VERTEX
 8
PARTS
 10
  4.3439
 20
  8.0439
 30
0.0
 42
  0.0985
 0
VERTEX
 8
PARTS
 10
  4.3926
 20
  8.0114
 30
0.0
 42
  0.0985
 0
VERTEX
 8
PARTS
 10
  4.4500
 20
  8.0000
 30
0.0
 42
  0.0985
 0
VERTEX
 8
PARTS
 10
  4.5074
 20
  8.0114
 30
0.0
 42
  0.0985
 0
VERTEX
 8
PARTS
 10
  4.5561
 20
  8.0439
 30
0.0
 42
  0.0985
 0
VERTEX
 8
PARTS
 10
  4.5886
 20
  8.0926
 30
0.0
 42
  0.0985
 0
SEQEND
 8
PARTS
 0
POLYLINE
 8
PARTS
 66
1
 70
1
 10
0.0
 20
0.0
 30
0.0
 0
VERTEX
 8
PARTS
 10
  8.7000
 20
  8.6000
 30
0.0
 42
  0.0985
 0
VERTEX
 8
PARTS
 10
  8.6924
 20
  8.6383
 30
0.0
 42
  0.0985
 0
VERTEX
 8
PARTS
 10
  8.6707
 20
  8.6707
 30
0.0
 42
  0.0985
 0
VERTEX
 8
PARTS
 10
  8.6383
 20
  8.6924
 30
0.0
 42
  0.0985
 0
VERTEX
 8
PARTS
 10
  8.6000
 20
  8.7000
 30
0.0
 42
  0.0985
 0
VERTEX
 8
PARTS
 10
  8.5617
 20
  8.6924
 30
0.0
 42
  0.0985
 0
VERTEX
 8
PARTS
 10
  8.5293
 20
  8.6707
 30
0.0
 42
  0.0985
 0
VERTEX
 8
PARTS
 10
  8.5076
 20
  8.6383
 30
0.0
 42
  0.0985
 0
VERTEX
 8
PARTS
 10
  8.5000
 20
  8.6000
 30
0.0
 42
  0.0985
 0
VERTEX
 8
PARTS
 10
  8.5076
 20
  8.5617
 30
0.0
 42
  0.0985
 0
VERTEX
 8
PARTS
 10
  8.5293
 20
  8.5293
 30
0.0
 42
  0.0985
 0
VERTEX
 8
PARTS
 10
  8.5617
 20
  8.5076
 30
0.0
 42
  0.0985
 0
VERTEX
 8
PARTS
 10
  8.6000
 20
  8.5000
 30
0.0
 42
  0.0985
 0
VERTEX
 8
PARTS
 10
  8.6383
 20
  8.5076
 30
0.0
 42
  0.0985
 0
VERTEX
 8
PARTS
 10
  8.6707
 20
  8.5293
 30
0.0
 42
  0.0985
 0
VERTEX
 8
PARTS
 10
  8.6924
 20
  8.5617
 30
0.0
 42
  0.0985
 0
SEQEND
 8
PARTS
 0
POLYLINE
 8
PARTS
 66
1
 70
1
 10
0.0
 20
0.0
 30
0.0
 0
VERTEX
 8
PARTS
 10
  7.1000
 20
  5.2000
 30
0.0
 42
  0.0985
 0
VERTEX
 8
PARTS
 10
  7.0924
 20
  5.2383
 30
0.0
 42
  0.0985
 0
VERTEX
 8
PARTS
 10
  7.0707
 20
  5.2707
 30
0.0
 42
  0.0985
 0
VERTEX
 8
PARTS
 10
  7.0383
 20
  5.2924
 30
0.0
 42
  0.0985
 0
VERTEX
 8
PARTS
 10
  7.0000
 20
  5.3000
 30
0.0
 42
  0.0985
 0
VERTEX
 8
PARTS
 10
  6.9617
 20
  5.2924
 30
0.0
 42
  0.0985
 0
VERTEX
 8
PARTS
 10
  6.9293
 20
  5.2707
 30
0.0
 42
  0.0985
 0
VERTEX
 8
PARTS
 10
  6.9076
 20
  5.2383
 30
0.0
 42
  0.0985
 0
VERTEX
 8
PARTS
 10
  6.9000
 20
  5.2000
 30
0.0
 42
  0.0985
 0
VERTEX
 8
PARTS
 10
  6.9076
 20
  5.1617
 30
0.0
 42
  0.0985
 0
VERTEX
 8
PARTS
 10
  6.9293
 20
  5.1293
 30
0.0
 42
  0.0985
 0
VERTEX
 8
PARTS
 10
  6.9617
 20
  5.1076
 30
0.0
 42
  0.0985
 0
VERTEX
 8
PARTS
 10
  7.0000
 20
  5.1000
 30
0.0
 42
  0.0985
 0
VERTEX
 8
PARTS
 10
  7.0383
 20
  5.1076
 30
0.0
 42
  0.0985
 0
VERTEX
 8
PARTS
 10
  7.0707
 20
  5.1293
 30
0.0
 42
  0.0985
 0
VERTEX
 8
PARTS
 10
  7.0924
 20
  5.1617
 30
0.0
 42
  0.0985
 0
SEQEND
 8
PARTS
 0
POLYLINE
 8
PARTS
 66
1
 70
1
 10
0.0
 20
0.0
 30
0.0
 0
VERTEX
 8
PARTS
 10
  8.7000
 20
  7.9000
 30
0.0
 42
  0.0985
 0
VERTEX
 8
PARTS
 10
  8.6924
 20
  7.9383
 30
0.0
 42
  0.0985
 0
VERTEX
 8
PARTS
 10
  8.6707
 20
  7.9707
 30
0.0
 42
  0.0985
 0
VERTEX
 8
PARTS
 10
  8.6383
 20
  7.9924
 30
0.0
 42
  0.0985
 0
VERTEX
 8
PARTS
 10
  8.6000
 20
  8.0000
 30
0.0
 42
  0.0985
 0
VERTEX
 8
PARTS
 10
  8.5617
 20
  7.9924
 30
0.0
 42
  0.0985
 0
VERTEX
 8
PARTS
 10
  8.5293
 20
  7.9707
 30
0.0
 42
  0.0985
 0
VERTEX
 8
PARTS
 10
  8.5076
 20
  7.9383
 30
0.0
 42
  0.0985
 0
VERTEX
 8
PARTS
 10
  8.5000
 20
  7.9000
 30
0.0
 42
  0.0985
 0
VERTEX
 8
PARTS
 10
  8.5076
 20
  7.8617
 30
0.0
 42
  0.0985
 0
VERTEX
 8
PARTS
 10
  8.5293
 20
  7.8293
 30
0.0
 42
  0.0985
 0
VERTEX
 8
PARTS
 10
  8.5617
 20
  7.8076
 30
0.0
 42
  0.0985
 0
VERTEX
 8
PARTS
 10
  8.6000
 20
  7.8000
 30
0.0
 42
  0.0985
 0
VERTEX
 8
PARTS
 10
  8.6383
 20
  7.8076
 30
0.0
 42
  0.0985
 0
VERTEX
 8
PARTS
 10
  8.6707
 20
  7.8293
 30
0.0
 42
  0.0985
 0
VERTEX
 8
PARTS
 10
  8.6924
 20
  7.8617
 30
0.0
 42
  0.0985
 0
SEQEND
 8
PARTS
 0
POLYLINE
 8
PARTS
 66
1
 70
1
 10
0.0
 20
0.0
 30
0.0
 0
VERTEX
 8
PARTS
 10
  9.4000
 20
  5.2000
 30
0.0
 42
  0.0985
 0
VERTEX
 8
PARTS
 10
  9.3924
 20
  5.2383
 30
0.0
 42
  0.0985
 0
VERTEX
 8
PARTS
 10
  9.3707
 20
  5.2707
 30
0.0
 42
  0.0985
 0
VERTEX
 8
PARTS
 10
  9.3383
 20
  5.2924
 30
0.0
 42
  0.0985
 0
VERTEX
 8
PARTS
 10
  9.3000
 20
  5.3000
 30
0.0
 42
  0.0985
 0
VERTEX
 8
PARTS
 10
  9.2617
 20
  5.2924
 30
0.0
 42
  0.0985
 0
VERTEX
 8
PARTS
 10
  9.2293
 20
  5.2707
 30
0.0
 42
  0.0985
 0
VERTEX
 8
PARTS
 10
  9.2076
 20
  5.2383
 30
0.0
 42
  0.0985
 0
VERTEX
 8
PARTS
 10
  9.2000
 20
  5.2000
 30
0.0
 42
  0.0985
 0
VERTEX
 8
PARTS
 10
  9.2076
 20
  5.1617
 30
0.0
 42
  0.0985
 0
VERTEX
 8
PARTS
 10
  9.2293
 20
  5.1293
 30
0.0
 42
  0.0985
 0
VERTEX
 8
PARTS
 10
  9.2617
 20
  5.1076
 30
0.0
 42
  0.0985
 0
VERTEX
 8
PARTS
 10
  9.3000
 20
  5.1000
 30
0.0
 42
  0.0985
 0
VERTEX
 8
PARTS
 10
  9.3383
 20
  5.1076
 30
0.0
 42
  0.0985
 0
VERTEX
 8
PARTS
 10
  9.3707
 20
  5.1293
 30
0.0
 42
  0.0985
 0
VERTEX
 8
PARTS
 10
  9.3924
 20
  5.1617
 30
0.0
 42
  0.0985
 0
SEQEND
 8
PARTS
 0
POLYLINE
 8
WIRE
 66
1
 10
0.0
 20
0.0
 30
0.0
 0
VERTEX
 8
WIRE
 10
  1.3000
 20
  9.2000
 30
0.0
 0
VERTEX
 8
WIRE
 10
 13.5000
 20
  9.2000
 30
0.0
 0
SEQEND
 8
WIRE
 0
POLYLINE
 8
WIRE
 66
1
 10
0.0
 20
0.0
 30
0.0
 0
VERTEX
 8
WIRE
 10
  1.3000
 20
  7.2000
 30
0.0
 0
VERTEX
 8
WIRE
 10
 13.5000
 20
  7.2000
 30
0.0
 0
SEQEND
 8
WIRE
 0
POLYLINE
 8
WIRE
 66
1
 10
0.0
 20
0.0
 30
0.0
 0
VERTEX
 8
WIRE
 10
  1.3000
 20
  6.6000
 30
0.0
 0
VERTEX
 8
WIRE
 10
 13.5000
 20
  6.6000
 30
0.0
 0
SEQEND
 8
WIRE
 0
POLYLINE
 8
WIRE
 66
1
 10
0.0
 20
0.0
 30
0.0
 0
VERTEX
 8
WIRE
 10
  1.6000
 20
  6.4000
 30
0.0
 0
VERTEX
 8
WIRE
 10
  3.2000
 20
  6.4000
 30
0.0
 0
SEQEND
 8
WIRE
 0
POLYLINE
 8
WIRE
 66
1
 10
0.0
 20
0.0
 30
0.0
 0
VERTEX
 8
WIRE
 10
 11.6000
 20
  6.4000
 30
0.0
 0
VERTEX
 8
WIRE
 10
 13.2000
 20
  6.4000
 30
0.0
 0
SEQEND
 8
WIRE
 0
POLYLINE
 8
WIRE
 66
1
 10
0.0
 20
0.0
 30
0.0
 0
VERTEX
 8
WIRE
 10
  4.4000
 20
  6.2000
 30
0.0
 0
VERTEX
 8
WIRE
 10
  5.2000
 20
  6.2000
 30
0.0
 0
SEQEND
 8
WIRE
 0
POLYLINE
 8
WIRE
 66
1
 10
0.0
 20
0.0
 30
0.0
 0
VERTEX
 8
WIRE
 10
  4.4000
 20
  5.8000
 30
0.0
 0
VERTEX
 8
WIRE
 10
  5.2000
 20
  5.8000
 30
0.0
 0
SEQEND
 8
WIRE
 0
POLYLINE
 8
WIRE
 66
1
 10
0.0
 20
0.0
 30
0.0
 0
VERTEX
 8
WIRE
 10
  4.2000
 20
  5.3000
 30
0.0
 0
VERTEX
 8
WIRE
 10
  5.5000
 20
  5.3000
 30
0.0
 0
SEQEND
 8
WIRE
 0
POLYLINE
 8
WIRE
 66
1
 10
0.0
 20
0.0
 30
0.0
 0
VERTEX
 8
WIRE
 10
  4.2000
 20
  5.0000
 30
0.0
 0
VERTEX
 8
WIRE
 10
  5.5000
 20
  5.0000
 30
0.0
 0
SEQEND
 8
WIRE
 0
POLYLINE
 8
WIRE
 66
1
 10
0.0
 20
0.0
 30
0.0
 0
VERTEX
 8
WIRE
 10
  1.6000
 20
  4.8000
 30
0.0
 0
VERTEX
 8
WIRE
 10
  3.2000
 20
  4.8000
 30
0.0
 0
SEQEND
 8
WIRE
 0
POLYLINE
 8
WIRE
 66
1
 10
0.0
 20
0.0
 30
0.0
 0
VERTEX
 8
WIRE
 10
 11.6000
 20
  4.8000
 30
0.0
 0
VERTEX
 8
WIRE
 10
 13.2000
 20
  4.8000
 30
0.0
 0
SEQEND
 8
WIRE
 0
POLYLINE
 8
WIRE
 66
1
 10
0.0
 20
0.0
 30
0.0
 0
VERTEX
 8
WIRE
 10
  1.3000
 20
  4.6000
 30
0.0
 0
VERTEX
 8
WIRE
 10
 13.5000
 20
  4.6000
 30
0.0
 0
SEQEND
 8
WIRE
 0
POLYLINE
 8
WIRE
 66
1
 10
0.0
 20
0.0
 30
0.0
 0
VERTEX
 8
WIRE
 10
  1.3000
 20
  9.2000
 30
0.0
 0
VERTEX
 8
WIRE
 10
  1.3000
 20
  7.2000
 30
0.0
 0
SEQEND
 8
WIRE
 0
POLYLINE
 8
WIRE
 66
1
 10
0.0
 20
0.0
 30
0.0
 0
VERTEX
 8
WIRE
 10
  1.3000
 20
  6.6000
 30
0.0
 0
VERTEX
 8
WIRE
 10
  1.3000
 20
  4.6000
 30
0.0
 0
SEQEND
 8
WIRE
 0
POLYLINE
 8
WIRE
 66
1
 10
0.0
 20
0.0
 30
0.0
 0
VERTEX
 8
WIRE
 10
  1.6000
 20
  6.4000
 30
0.0
 0
VERTEX
 8
WIRE
 10
  1.6000
 20
  4.8000
 30
0.0
 0
SEQEND
 8
WIRE
 0
POLYLINE
 8
WIRE
 66
1
 10
0.0
 20
0.0
 30
0.0
 0
VERTEX
 8
WIRE
 10
  3.2000
 20
  6.4000
 30
0.0
 0
VERTEX
 8
WIRE
 10
  3.2000
 20
  4.8000
 30
0.0
 0
SEQEND
 8
WIRE
 0
POLYLINE
 8
WIRE
 66
1
 10
0.0
 20
0.0
 30
0.0
 0
VERTEX
 8
WIRE
 10
  4.2000
 20
  5.3000
 30
0.0
 0
VERTEX
 8
WIRE
 10
  4.2000
 20
  5.0000
 30
0.0
 0
SEQEND
 8
WIRE
 0
POLYLINE
 8
WIRE
 66
1
 10
0.0
 20
0.0
 30
0.0
 0
VERTEX
 8
WIRE
 10
  4.4000
 20
  6.2000
 30
0.0
 0
VERTEX
 8
WIRE
 10
  4.4000
 20
  5.8000
 30
0.0
 0
SEQEND
 8
WIRE
 0
POLYLINE
 8
WIRE
 66
1
 10
0.0
 20
0.0
 30
0.0
 0
VERTEX
 8
WIRE
 10
  5.2000
 20
  6.2000
 30
0.0
 0
VERTEX
 8
WIRE
 10
  5.2000
 20
  5.8000
 30
0.0
 0
SEQEND
 8
WIRE
 0
POLYLINE
 8
WIRE
 66
1
 10
0.0
 20
0.0
 30
0.0
 0
VERTEX
 8
WIRE
 10
  5.5000
 20
  5.3000
 30
0.0
 0
VERTEX
 8
WIRE
 10
  5.5000
 20
  5.0000
 30
0.0
 0
SEQEND
 8
WIRE
 0
POLYLINE
 8
WIRE
 66
1
 10
0.0
 20
0.0
 30
0.0
 0
VERTEX
 8
WIRE
 10
 11.6000
 20
  6.4000
 30
0.0
 0
VERTEX
 8
WIRE
 10
 11.6000
 20
  4.8000
 30
0.0
 0
SEQEND
 8
WIRE
 0
POLYLINE
 8
WIRE
 66
1
 10
0.0
 20
0.0
 30
0.0
 0
VERTEX
 8
WIRE
 10
 13.2000
 20
  6.4000
 30
0.0
 0
VERTEX
 8
WIRE
 10
 13.2000
 20
  4.8000
 30
0.0
 0
SEQEND
 8
WIRE
 0
POLYLINE
 8
WIRE
 66
1
 10
0.0
 20
0.0
 30
0.0
 0
VERTEX
 8
WIRE
 10
 13.5000
 20
  9.2000
 30
0.0
 0
VERTEX
 8
WIRE
 10
 13.5000
 20
  7.2000
 30
0.0
 0
SEQEND
 8
WIRE
 0
POLYLINE
 8
WIRE
 66
1
 10
0.0
 20
0.0
 30
0.0
 0
VERTEX
 8
WIRE
 10
 13.5000
 20
  6.6000
 30
0.0
 0
VERTEX
 8
WIRE
 10
 13.5000
 20
  4.6000
 30
0.0
 0
SEQEND
 8
WIRE
 0
TEXT
 8
COMMENTS
 10
 12.6000
 20
  8.9186
 30
0.0
 40
  0.0514
 1
POWER
 0
TEXT
 8
COMMENTS
 10
 11.4000
 20
  8.8186
 30
0.0
 40
  0.0514
 1
+5V
 0
TEXT
 8
COMMENTS
 10
 11.2000
 20
  8.4186
 30
0.0
 40
  0.0514
 1
-5.2V
 0
TEXT
 8
COMMENTS
 10
 11.3000
 20
  8.0186
 30
0.0
 40
  0.0514
 1
+15V
 0
TEXT
 8
COMMENTS
 10
 11.3000
 20
  7.6186
 30
0.0
 40
  0.0514
 1
GND
 0
TEXT
 8
COMMENTS
 10
  4.3000
 20
  8.5186
 30
0.0
 40
  0.0514
 1
20MHz
 0
TEXT
 8
COMMENTS
 10
  4.3000
 20
  8.4186
 30
0.0
 40
  0.0514
 1
+13dBm
 0
TEXT
 8
COMMENTS
 10
  4.3000
 20
  5.4186
 30
0.0
 40
  0.0514
 1
DDS Control
 0
TEXT
 8
COMMENTS
 10
  4.6000
 20
  5.1186
 30
0.0
 40
  0.0514
 1
DB50
 0
TEXT
 8
COMMENTS
 10
  4.5000
 20
  6.3186
 30
0.0
 40
  0.0514
 1
DC POWER
 0
TEXT
 8
COMMENTS
 10
  5.9000
 20
  8.5186
 30
0.0
 40
  0.0514
 1
20MHz
 0
TEXT
 8
COMMENTS
 10
  5.9000
 20
  8.4186
 30
0.0
 40
  0.0514
 1
+13dBm
 0
TEXT
 8
COMMENTS
 10
  5.9000
 20
  8.6186
 30
0.0
 40
  0.0514
 1
DDS2
 0
TEXT
 8
COMMENTS
 10
  6.8000
 20
  6.2186
 30
0.0
 40
  0.0514
 1
+13dBm
 0
TEXT
 8
COMMENTS
 10
  7.9000
 20
  6.2186
 30
0.0
 40
  0.0514
 1
+13dBm
 0
TEXT
 8
COMMENTS
 10
  9.2000
 20
  6.2186
 30
0.0
 40
  0.0514
 1
TTL
 0
TEXT
 8
COMMENTS
 10
  6.6000
 20
  5.5186
 30
0.0
 40
  0.0514
 1
Sinc Filter
 0
TEXT
 8
COMMENTS
 10
  6.7000
 20
  5.4186
 30
0.0
 40
  0.0514
 1
+13dBm
 0
TEXT
 8
COMMENTS
 10
  7.8000
 20
  5.5186
 30
0.0
 40
  0.0514
 1
 PN Code
 0
TEXT
 8
COMMENTS
 10
  7.9000
 20
  5.4186
 30
0.0
 40
  0.0514
 1
+13dBm
 0
TEXT
 8
COMMENTS
 10
  9.1000
 20
  5.4186
 30
0.0
 40
  0.0514
 1
+13dBm
 0
TEXT
 8
COMMENTS
 10
 10.2000
 20
  5.4186
 30
0.0
 40
  0.0514
 1
+13dBm
 0
TEXT
 8
COMMENTS
 10
 10.0000
 20
  5.5186
 30
0.0
 40
  0.0514
 1
UpConverter
 0
TEXT
 8
COMMENTS
 10
  8.7000
 20
  5.5186
 30
0.0
 40
  0.0514
 1
 DownConverter
 0
TEXT
 8
COMMENTS
 10
  1.5000
 20
  8.9186
 30
0.0
 40
  0.0514
 1
DIRECT DIGITAL SYNTHESIZERS
 0
TEXT
 8
COMMENTS
 10
  2.3000
 20
  5.6186
 30
0.0
 40
  0.0514
 1
FAN
 0
TEXT
 8
COMMENTS
 10
 12.2000
 20
  5.6186
 30
0.0
 40
  0.0514
 1
FILTER
 0
TEXT
 8
COMMENTS
 10
  4.4000
 20
  6.0186
 30
0.0
 40
  0.0514
 1
Mate-N-Lok
 0
TEXT
 8
COMMENTS
 10
  4.5000
 20
  5.9186
 30
0.0
 40
  0.0514
 1
15 pins
 0
TEXT
 8
COMMENTS
 10
  8.8000
 20
  7.9186
 30
0.0
 40
  0.0514
 1
DDS'S TO RECEIVER
 0
TEXT
 8
COMMENTS
 10
  8.8000
 20
  8.6186
 30
0.0
 40
  0.0514
 1
DDS'S TO TRANSMITTER
 0
TEXT
 8
COMMENTS
 10
 10.0000
 20
  6.2186
 30
0.0
 40
  0.0514
 1
To Timing Gen.
 0
TEXT
 8
COMMENTS
 10
 10.2000
 20
  6.1186
 30
0.0
 40
  0.0514
 1
+13dBm
 0
TEXT
 8
COMMENTS
 10
 10.1000
 20
  6.3186
 30
0.0
 40
  0.0514
 1
20MHz Out
 0
TEXT
 8
COMMENTS
 10
  6.7000
 20
  6.3186
 30
0.0
 40
  0.0514
 1
20MHz In
 0
TEXT
 8
COMMENTS
 10
  7.8000
 20
  6.3186
 30
0.0
 40
  0.0514
 1
100MHz In
 0
TEXT
 8
COMMENTS
 10
  9.0000
 20
  6.3186
 30
0.0
 40
  0.0514
 1
1S Tick In
 0
TEXT
 8
COMMENTS
 10
  6.7000
 20
  5.6186
 30
0.0
 40
  0.0514
 1
80MHz Out
 0
TEXT
 8
COMMENTS
 10
  7.9000
 20
  5.6186
 30
0.0
 40
  0.0514
 1
20MHz Out
 0
TEXT
 8
COMMENTS
 10
  9.0000
 20
  5.6186
 30
0.0
 40
  0.0514
 1
20MHz Out
 0
TEXT
 8
COMMENTS
 10
 10.1000
 20
  5.6186
 30
0.0
 40
  0.0514
 1
20MHz Out
 0
TEXT
 8
COMMENTS
 10
  4.3000
 20
  8.6186
 30
0.0
 40
  0.0514
 1
DDS1 
 0
ENDSEC
 0
EOF
