 0
SECTION
 2
HEADER
 9
$ACADVER
 1
AC1009
 0
ENDSEC
 0
SECTION
 2
ENTITIES
 0
POLYLINE
 8
TITLE
 66
1
 70
1
 10
0.0
 20
0.0
 30
0.0
 0
VERTEX
 8
TITLE
 10
 -0.1000
 20
  0.1000
 30
0.0
 0
VERTEX
 8
TITLE
 10
 15.1000
 20
  0.1000
 30
0.0
 0
VERTEX
 8
TITLE
 10
 15.1000
 20
  9.8000
 30
0.0
 0
VERTEX
 8
TITLE
 10
 -0.1000
 20
  9.8000
 30
0.0
 0
SEQEND
 8
TITLE
 0
POLYLINE
 8
TITLE
 66
1
 70
1
 10
0.0
 20
0.0
 30
0.0
 0
VERTEX
 8
TITLE
 10
  0.0000
 20
  0.2000
 30
0.0
 0
VERTEX
 8
TITLE
 10
 15.0000
 20
  0.2000
 30
0.0
 0
VERTEX
 8
TITLE
 10
 15.0000
 20
  9.7000
 30
0.0
 0
VERTEX
 8
TITLE
 10
  0.0000
 20
  9.7000
 30
0.0
 0
SEQEND
 8
TITLE
 0
POLYLINE
 8
TITLE
 66
1
 10
0.0
 20
0.0
 30
0.0
 0
VERTEX
 8
TITLE
 10
  2.0500
 20
  0.2000
 30
0.0
 0
VERTEX
 8
TITLE
 10
  2.0500
 20
  0.1000
 30
0.0
 0
SEQEND
 8
TITLE
 0
POLYLINE
 8
TITLE
 66
1
 10
0.0
 20
0.0
 30
0.0
 0
VERTEX
 8
TITLE
 10
  2.0500
 20
  9.7000
 30
0.0
 0
VERTEX
 8
TITLE
 10
  2.0500
 20
  9.8000
 30
0.0
 0
SEQEND
 8
TITLE
 0
SOLID
 8
TITLE
 10
  7.6000
 20
  0.2000
 30
0.0
 11
  7.5800
 21
  0.1500
 31
0.0
 12
  7.6200
 22
  0.1500
 32
0.0
 13
  7.6000
 23
  0.1500
 33
0.0
 0
SOLID
 8
TITLE
 10
  7.6000
 20
  9.7000
 30
0.0
 11
  7.5800
 21
  9.7500
 31
0.0
 12
  7.6200
 22
  9.7500
 32
0.0
 13
  7.6000
 23
  9.7500
 33
0.0
 0
POLYLINE
 8
TITLE
 66
1
 10
0.0
 20
0.0
 30
0.0
 0
VERTEX
 8
TITLE
 10
  3.9000
 20
  0.2000
 30
0.0
 0
VERTEX
 8
TITLE
 10
  3.9000
 20
  0.1000
 30
0.0
 0
SEQEND
 8
TITLE
 0
POLYLINE
 8
TITLE
 66
1
 10
0.0
 20
0.0
 30
0.0
 0
VERTEX
 8
TITLE
 10
  3.9000
 20
  9.7000
 30
0.0
 0
VERTEX
 8
TITLE
 10
  3.9000
 20
  9.8000
 30
0.0
 0
SEQEND
 8
TITLE
 0
SOLID
 8
TITLE
 10
  7.6000
 20
  0.2000
 30
0.0
 11
  7.5800
 21
  0.1500
 31
0.0
 12
  7.6200
 22
  0.1500
 32
0.0
 13
  7.6000
 23
  0.1500
 33
0.0
 0
SOLID
 8
TITLE
 10
  7.6000
 20
  9.7000
 30
0.0
 11
  7.5800
 21
  9.7500
 31
0.0
 12
  7.6200
 22
  9.7500
 32
0.0
 13
  7.6000
 23
  9.7500
 33
0.0
 0
POLYLINE
 8
TITLE
 66
1
 10
0.0
 20
0.0
 30
0.0
 0
VERTEX
 8
TITLE
 10
  5.7500
 20
  0.2000
 30
0.0
 0
VERTEX
 8
TITLE
 10
  5.7500
 20
  0.1000
 30
0.0
 0
SEQEND
 8
TITLE
 0
POLYLINE
 8
TITLE
 66
1
 10
0.0
 20
0.0
 30
0.0
 0
VERTEX
 8
TITLE
 10
  5.7500
 20
  9.7000
 30
0.0
 0
VERTEX
 8
TITLE
 10
  5.7500
 20
  9.8000
 30
0.0
 0
SEQEND
 8
TITLE
 0
SOLID
 8
TITLE
 10
  7.6000
 20
  0.2000
 30
0.0
 11
  7.5800
 21
  0.1500
 31
0.0
 12
  7.6200
 22
  0.1500
 32
0.0
 13
  7.6000
 23
  0.1500
 33
0.0
 0
SOLID
 8
TITLE
 10
  7.6000
 20
  9.7000
 30
0.0
 11
  7.5800
 21
  9.7500
 31
0.0
 12
  7.6200
 22
  9.7500
 32
0.0
 13
  7.6000
 23
  9.7500
 33
0.0
 0
POLYLINE
 8
TITLE
 66
1
 10
0.0
 20
0.0
 30
0.0
 0
VERTEX
 8
TITLE
 10
  7.6000
 20
  0.2000
 30
0.0
 0
VERTEX
 8
TITLE
 10
  7.6000
 20
  0.1000
 30
0.0
 0
SEQEND
 8
TITLE
 0
POLYLINE
 8
TITLE
 66
1
 10
0.0
 20
0.0
 30
0.0
 0
VERTEX
 8
TITLE
 10
  7.6000
 20
  9.7000
 30
0.0
 0
VERTEX
 8
TITLE
 10
  7.6000
 20
  9.8000
 30
0.0
 0
SEQEND
 8
TITLE
 0
SOLID
 8
TITLE
 10
  7.6000
 20
  0.2000
 30
0.0
 11
  7.5800
 21
  0.1500
 31
0.0
 12
  7.6200
 22
  0.1500
 32
0.0
 13
  7.6000
 23
  0.1500
 33
0.0
 0
SOLID
 8
TITLE
 10
  7.6000
 20
  9.7000
 30
0.0
 11
  7.5800
 21
  9.7500
 31
0.0
 12
  7.6200
 22
  9.7500
 32
0.0
 13
  7.6000
 23
  9.7500
 33
0.0
 0
POLYLINE
 8
TITLE
 66
1
 10
0.0
 20
0.0
 30
0.0
 0
VERTEX
 8
TITLE
 10
  9.4500
 20
  0.2000
 30
0.0
 0
VERTEX
 8
TITLE
 10
  9.4500
 20
  0.1000
 30
0.0
 0
SEQEND
 8
TITLE
 0
POLYLINE
 8
TITLE
 66
1
 10
0.0
 20
0.0
 30
0.0
 0
VERTEX
 8
TITLE
 10
  9.4500
 20
  9.7000
 30
0.0
 0
VERTEX
 8
TITLE
 10
  9.4500
 20
  9.8000
 30
0.0
 0
SEQEND
 8
TITLE
 0
SOLID
 8
TITLE
 10
  7.6000
 20
  0.2000
 30
0.0
 11
  7.5800
 21
  0.1500
 31
0.0
 12
  7.6200
 22
  0.1500
 32
0.0
 13
  7.6000
 23
  0.1500
 33
0.0
 0
SOLID
 8
TITLE
 10
  7.6000
 20
  9.7000
 30
0.0
 11
  7.5800
 21
  9.7500
 31
0.0
 12
  7.6200
 22
  9.7500
 32
0.0
 13
  7.6000
 23
  9.7500
 33
0.0
 0
POLYLINE
 8
TITLE
 66
1
 10
0.0
 20
0.0
 30
0.0
 0
VERTEX
 8
TITLE
 10
 11.3000
 20
  0.2000
 30
0.0
 0
VERTEX
 8
TITLE
 10
 11.3000
 20
  0.1000
 30
0.0
 0
SEQEND
 8
TITLE
 0
POLYLINE
 8
TITLE
 66
1
 10
0.0
 20
0.0
 30
0.0
 0
VERTEX
 8
TITLE
 10
 11.3000
 20
  9.7000
 30
0.0
 0
VERTEX
 8
TITLE
 10
 11.3000
 20
  9.8000
 30
0.0
 0
SEQEND
 8
TITLE
 0
SOLID
 8
TITLE
 10
  7.6000
 20
  0.2000
 30
0.0
 11
  7.5800
 21
  0.1500
 31
0.0
 12
  7.6200
 22
  0.1500
 32
0.0
 13
  7.6000
 23
  0.1500
 33
0.0
 0
SOLID
 8
TITLE
 10
  7.6000
 20
  9.7000
 30
0.0
 11
  7.5800
 21
  9.7500
 31
0.0
 12
  7.6200
 22
  9.7500
 32
0.0
 13
  7.6000
 23
  9.7500
 33
0.0
 0
POLYLINE
 8
TITLE
 66
1
 10
0.0
 20
0.0
 30
0.0
 0
VERTEX
 8
TITLE
 10
 13.1500
 20
  0.2000
 30
0.0
 0
VERTEX
 8
TITLE
 10
 13.1500
 20
  0.1000
 30
0.0
 0
SEQEND
 8
TITLE
 0
POLYLINE
 8
TITLE
 66
1
 10
0.0
 20
0.0
 30
0.0
 0
VERTEX
 8
TITLE
 10
 13.1500
 20
  9.7000
 30
0.0
 0
VERTEX
 8
TITLE
 10
 13.1500
 20
  9.8000
 30
0.0
 0
SEQEND
 8
TITLE
 0
SOLID
 8
TITLE
 10
  7.6000
 20
  0.2000
 30
0.0
 11
  7.5800
 21
  0.1500
 31
0.0
 12
  7.6200
 22
  0.1500
 32
0.0
 13
  7.6000
 23
  0.1500
 33
0.0
 0
SOLID
 8
TITLE
 10
  7.6000
 20
  9.7000
 30
0.0
 11
  7.5800
 21
  9.7500
 31
0.0
 12
  7.6200
 22
  9.7500
 32
0.0
 13
  7.6000
 23
  9.7500
 33
0.0
 0
TEXT
 8
TITLE
 10
  1.1200
 20
  0.1200
 30
0.0
 40
  0.0500
 1
8
 0
TEXT
 8
TITLE
 10
  1.1200
 20
  9.7200
 30
0.0
 40
  0.0500
 1
8
 0
TEXT
 8
TITLE
 10
  2.9700
 20
  0.1200
 30
0.0
 40
  0.0500
 1
7
 0
TEXT
 8
TITLE
 10
  2.9700
 20
  9.7200
 30
0.0
 40
  0.0500
 1
7
 0
TEXT
 8
TITLE
 10
  4.8200
 20
  0.1200
 30
0.0
 40
  0.0500
 1
6
 0
TEXT
 8
TITLE
 10
  4.8200
 20
  9.7200
 30
0.0
 40
  0.0500
 1
6
 0
TEXT
 8
TITLE
 10
  6.6700
 20
  0.1200
 30
0.0
 40
  0.0500
 1
5
 0
TEXT
 8
TITLE
 10
  6.6700
 20
  9.7200
 30
0.0
 40
  0.0500
 1
5
 0
TEXT
 8
TITLE
 10
  8.5200
 20
  0.1200
 30
0.0
 40
  0.0500
 1
4
 0
TEXT
 8
TITLE
 10
  8.5200
 20
  9.7200
 30
0.0
 40
  0.0500
 1
4
 0
TEXT
 8
TITLE
 10
 10.3700
 20
  0.1200
 30
0.0
 40
  0.0500
 1
3
 0
TEXT
 8
TITLE
 10
 10.3700
 20
  9.7200
 30
0.0
 40
  0.0500
 1
3
 0
TEXT
 8
TITLE
 10
 12.2200
 20
  0.1200
 30
0.0
 40
  0.0500
 1
2
 0
TEXT
 8
TITLE
 10
 12.2200
 20
  9.7200
 30
0.0
 40
  0.0500
 1
2
 0
TEXT
 8
TITLE
 10
 14.0700
 20
  0.1200
 30
0.0
 40
  0.0500
 1
1
 0
TEXT
 8
TITLE
 10
 14.0700
 20
  9.7200
 30
0.0
 40
  0.0500
 1
1
 0
POLYLINE
 8
TITLE
 66
1
 10
0.0
 20
0.0
 30
0.0
 0
VERTEX
 8
TITLE
 10
 -0.1000
 20
  7.1800
 30
0.0
 0
VERTEX
 8
TITLE
 10
  0.0000
 20
  7.1800
 30
0.0
 0
SEQEND
 8
TITLE
 0
POLYLINE
 8
TITLE
 66
1
 10
0.0
 20
0.0
 30
0.0
 0
VERTEX
 8
TITLE
 10
 15.0000
 20
  7.1800
 30
0.0
 0
VERTEX
 8
TITLE
 10
 15.1000
 20
  7.1800
 30
0.0
 0
SEQEND
 8
TITLE
 0
SOLID
 8
TITLE
 10
  0.0000
 20
  4.8600
 30
0.0
 11
 -0.0500
 21
  4.8800
 31
0.0
 12
 -0.0500
 22
  4.8400
 32
0.0
 13
 -0.0500
 23
  4.8600
 33
0.0
 0
SOLID
 8
TITLE
 10
 15.0000
 20
  4.8600
 30
0.0
 11
 15.0500
 21
  4.8800
 31
0.0
 12
 15.0500
 22
  4.8400
 32
0.0
 13
 15.0500
 23
  4.8600
 33
0.0
 0
POLYLINE
 8
TITLE
 66
1
 10
0.0
 20
0.0
 30
0.0
 0
VERTEX
 8
TITLE
 10
 -0.1000
 20
  4.8600
 30
0.0
 0
VERTEX
 8
TITLE
 10
  0.0000
 20
  4.8600
 30
0.0
 0
SEQEND
 8
TITLE
 0
POLYLINE
 8
TITLE
 66
1
 10
0.0
 20
0.0
 30
0.0
 0
VERTEX
 8
TITLE
 10
 15.0000
 20
  4.8600
 30
0.0
 0
VERTEX
 8
TITLE
 10
 15.1000
 20
  4.8600
 30
0.0
 0
SEQEND
 8
TITLE
 0
SOLID
 8
TITLE
 10
  0.0000
 20
  4.8600
 30
0.0
 11
 -0.0500
 21
  4.8800
 31
0.0
 12
 -0.0500
 22
  4.8400
 32
0.0
 13
 -0.0500
 23
  4.8600
 33
0.0
 0
SOLID
 8
TITLE
 10
 15.0000
 20
  4.8600
 30
0.0
 11
 15.0500
 21
  4.8800
 31
0.0
 12
 15.0500
 22
  4.8400
 32
0.0
 13
 15.0500
 23
  4.8600
 33
0.0
 0
POLYLINE
 8
TITLE
 66
1
 10
0.0
 20
0.0
 30
0.0
 0
VERTEX
 8
TITLE
 10
 -0.1000
 20
  2.5400
 30
0.0
 0
VERTEX
 8
TITLE
 10
  0.0000
 20
  2.5400
 30
0.0
 0
SEQEND
 8
TITLE
 0
POLYLINE
 8
TITLE
 66
1
 10
0.0
 20
0.0
 30
0.0
 0
VERTEX
 8
TITLE
 10
 15.0000
 20
  2.5400
 30
0.0
 0
VERTEX
 8
TITLE
 10
 15.1000
 20
  2.5400
 30
0.0
 0
SEQEND
 8
TITLE
 0
SOLID
 8
TITLE
 10
  0.0000
 20
  4.8600
 30
0.0
 11
 -0.0500
 21
  4.8800
 31
0.0
 12
 -0.0500
 22
  4.8400
 32
0.0
 13
 -0.0500
 23
  4.8600
 33
0.0
 0
SOLID
 8
TITLE
 10
 15.0000
 20
  4.8600
 30
0.0
 11
 15.0500
 21
  4.8800
 31
0.0
 12
 15.0500
 22
  4.8400
 32
0.0
 13
 15.0500
 23
  4.8600
 33
0.0
 0
TEXT
 8
TITLE
 10
 -0.0800
 20
  8.3400
 30
0.0
 40
  0.0500
 1
D
 0
TEXT
 8
TITLE
 10
 15.0200
 20
  8.3400
 30
0.0
 40
  0.0500
 1
D
 0
TEXT
 8
TITLE
 10
 -0.0800
 20
  6.0200
 30
0.0
 40
  0.0500
 1
C
 0
TEXT
 8
TITLE
 10
 15.0200
 20
  6.0200
 30
0.0
 40
  0.0500
 1
C
 0
TEXT
 8
TITLE
 10
 -0.0800
 20
  3.7000
 30
0.0
 40
  0.0500
 1
B
 0
TEXT
 8
TITLE
 10
 15.0200
 20
  3.7000
 30
0.0
 40
  0.0500
 1
B
 0
TEXT
 8
TITLE
 10
 -0.0800
 20
  1.3800
 30
0.0
 40
  0.0500
 1
A
 0
TEXT
 8
TITLE
 10
 15.0200
 20
  1.3800
 30
0.0
 40
  0.0500
 1
A
 0
TEXT
 8
TITLE
 10
 11.7000
 20
  0.4186
 30
0.0
 40
  0.0514
 1
DIGITAL BOARD
 0
TEXT
 8
TITLE
 10
 14.6700
 20
  0.3986
 30
0.0
 40
  0.0514
 1
0
 0
TEXT
 8
TITLE
 10
 11.7000
 20
  0.7186
 30
0.0
 40
  0.0514
 1
DDS CONTROLLER
 0
TEXT
 8
TITLE
 10
 11.3000
 20
  1.3186
 30
0.0
 40
  0.0514
 1
ARECIBO OBSERVATORY
 0
TEXT
 8
TITLE
 10
 11.3000
 20
  1.1186
 30
0.0
 40
  0.0514
 1
BY : BILL SISK
 0
TEXT
 8
TITLE
 10
 11.3000
 20
  1.0186
 30
0.0
 40
  0.0514
 1
FILE : DDS6.SCH
 0
TEXT
 8
TITLE
 10
 11.4000
 20
  0.4186
 30
0.0
 40
  0.0514
 1
B
 0
TEXT
 8
TITLE
 10
 13.8000
 20
  0.2186
 30
0.0
 40
  0.0514
 1
3
 0
TEXT
 8
TITLE
 10
 14.4000
 20
  0.2186
 30
0.0
 40
  0.0514
 1
4
 0
TEXT
 8
TITLE
 10
 11.7100
 20
  0.2186
 30
0.0
 40
  0.0514
 1
Friday, March 11, 2005
 0
TEXT
 8
PARTTEXT
 10
 11.3000
 20
  0.8186
 30
0.0
 40
  0.0514
 1
Title
 0
TEXT
 8
PARTTEXT
 10
 11.3000
 20
  0.5186
 30
0.0
 40
  0.0514
 1
Size
 0
TEXT
 8
PARTTEXT
 10
 11.7000
 20
  0.5186
 30
0.0
 40
  0.0514
 1
Document Number
 0
TEXT
 8
PARTTEXT
 10
 14.6000
 20
  0.5186
 30
0.0
 40
  0.0514
 1
Rev
 0
TEXT
 8
PARTTEXT
 10
 11.3000
 20
  0.2186
 30
0.0
 40
  0.0514
 1
Date:
 0
TEXT
 8
PARTTEXT
 10
 13.3000
 20
  0.2186
 30
0.0
 40
  0.0514
 1
Sheet
 0
POLYLINE
 8
TITLE
 66
1
 70
1
 10
0.0
 20
0.0
 30
0.0
 0
VERTEX
 8
TITLE
 10
 11.3000
 20
  1.4000
 30
0.0
 0
VERTEX
 8
TITLE
 10
 14.9000
 20
  1.4000
 30
0.0
 0
VERTEX
 8
TITLE
 10
 14.9000
 20
  0.9000
 30
0.0
 0
VERTEX
 8
TITLE
 10
 11.3000
 20
  0.9000
 30
0.0
 0
SEQEND
 8
TITLE
 0
POLYLINE
 8
TITLE
 66
1
 70
1
 10
0.0
 20
0.0
 30
0.0
 0
VERTEX
 8
TITLE
 10
 11.3000
 20
  0.9000
 30
0.0
 0
VERTEX
 8
TITLE
 10
 14.9000
 20
  0.9000
 30
0.0
 0
VERTEX
 8
TITLE
 10
 14.9000
 20
  0.6000
 30
0.0
 0
VERTEX
 8
TITLE
 10
 11.3000
 20
  0.6000
 30
0.0
 0
SEQEND
 8
TITLE
 0
POLYLINE
 8
TITLE
 66
1
 70
1
 10
0.0
 20
0.0
 30
0.0
 0
VERTEX
 8
TITLE
 10
 11.3000
 20
  0.6000
 30
0.0
 0
VERTEX
 8
TITLE
 10
 11.6000
 20
  0.6000
 30
0.0
 0
VERTEX
 8
TITLE
 10
 11.6000
 20
  0.3000
 30
0.0
 0
VERTEX
 8
TITLE
 10
 11.3000
 20
  0.3000
 30
0.0
 0
SEQEND
 8
TITLE
 0
POLYLINE
 8
TITLE
 66
1
 70
1
 10
0.0
 20
0.0
 30
0.0
 0
VERTEX
 8
TITLE
 10
 11.6000
 20
  0.6000
 30
0.0
 0
VERTEX
 8
TITLE
 10
 14.6000
 20
  0.6000
 30
0.0
 0
VERTEX
 8
TITLE
 10
 14.6000
 20
  0.3000
 30
0.0
 0
VERTEX
 8
TITLE
 10
 11.6000
 20
  0.3000
 30
0.0
 0
SEQEND
 8
TITLE
 0
POLYLINE
 8
TITLE
 66
1
 70
1
 10
0.0
 20
0.0
 30
0.0
 0
VERTEX
 8
TITLE
 10
 14.6000
 20
  0.6000
 30
0.0
 0
VERTEX
 8
TITLE
 10
 14.9000
 20
  0.6000
 30
0.0
 0
VERTEX
 8
TITLE
 10
 14.9000
 20
  0.3000
 30
0.0
 0
VERTEX
 8
TITLE
 10
 14.6000
 20
  0.3000
 30
0.0
 0
SEQEND
 8
TITLE
 0
POLYLINE
 8
TITLE
 66
1
 70
1
 10
0.0
 20
0.0
 30
0.0
 0
VERTEX
 8
TITLE
 10
 11.3000
 20
  0.3000
 30
0.0
 0
VERTEX
 8
TITLE
 10
 13.3000
 20
  0.3000
 30
0.0
 0
VERTEX
 8
TITLE
 10
 13.3000
 20
  0.2000
 30
0.0
 0
VERTEX
 8
TITLE
 10
 11.3000
 20
  0.2000
 30
0.0
 0
SEQEND
 8
TITLE
 0
POLYLINE
 8
TITLE
 66
1
 70
1
 10
0.0
 20
0.0
 30
0.0
 0
VERTEX
 8
TITLE
 10
 13.3000
 20
  0.3000
 30
0.0
 0
VERTEX
 8
TITLE
 10
 14.9000
 20
  0.3000
 30
0.0
 0
VERTEX
 8
TITLE
 10
 14.9000
 20
  0.2000
 30
0.0
 0
VERTEX
 8
TITLE
 10
 13.3000
 20
  0.2000
 30
0.0
 0
SEQEND
 8
TITLE
 0
TEXT
 8
PARTTEXT
 10
 14.1000
 20
  0.2186
 30
0.0
 40
  0.0514
 1
of
 0
TEXT
 8
PARTTEXT
 10
  5.8500
 20
  4.0086
 30
0.0
 40
  0.0514
 1
A2C
 0
TEXT
 8
PARTTEXT
 10
  5.8500
 20
  3.5086
 30
0.0
 40
  0.0514
 1
74AS1004
 0
LINE
 8
PARTS
 10
  5.5000
 20
  3.8000
 30
0.0
 11
  5.8000
 21
  3.8000
 31
0.0
 0
TEXT
 8
PARTS
 10
  5.7000
 20
  3.8300
 30
0.0
 40
  0.0500
 1
5
 0
CIRCLE
 8
PARTS
 10
  6.2300
 20
  3.8000
 30
0.0
 40
  0.0300
 0
LINE
 8
PARTS
 10
  6.5000
 20
  3.8000
 30
0.0
 11
  6.2600
 21
  3.8000
 31
0.0
 0
TEXT
 8
PARTS
 10
  6.2600
 20
  3.8300
 30
0.0
 40
  0.0500
 1
6
 0
POLYLINE
 8
PARTS
 66
1
 10
0.0
 20
0.0
 30
0.0
 0
VERTEX
 8
PARTS
 10
  5.8000
 20
  4.0000
 30
0.0
 0
VERTEX
 8
PARTS
 10
  6.2000
 20
  3.8000
 30
0.0
 0
SEQEND
 8
PARTS
 0
POLYLINE
 8
PARTS
 66
1
 10
0.0
 20
0.0
 30
0.0
 0
VERTEX
 8
PARTS
 10
  6.2000
 20
  3.8000
 30
0.0
 0
VERTEX
 8
PARTS
 10
  5.8000
 20
  3.6000
 30
0.0
 0
SEQEND
 8
PARTS
 0
POLYLINE
 8
PARTS
 66
1
 10
0.0
 20
0.0
 30
0.0
 0
VERTEX
 8
PARTS
 10
  5.8000
 20
  3.6000
 30
0.0
 0
VERTEX
 8
PARTS
 10
  5.8000
 20
  4.0000
 30
0.0
 0
SEQEND
 8
PARTS
 0
TEXT
 8
PARTTEXT
 10
  9.0500
 20
  3.9086
 30
0.0
 40
  0.0514
 1
R?
 0
TEXT
 8
PARTTEXT
 10
  9.0500
 20
  3.6086
 30
0.0
 40
  0.0514
 1
180
 0
LINE
 8
PARTS
 10
  8.9000
 20
  3.8000
 30
0.0
 11
  9.0000
 21
  3.8000
 31
0.0
 0
TEXT
 8
PARTS
 10
  8.9400
 20
  3.8300
 30
0.0
 40
  0.0500
 1

 0
LINE
 8
PARTS
 10
  9.4000
 20
  3.8000
 30
0.0
 11
  9.3000
 21
  3.8000
 31
0.0
 0
TEXT
 8
PARTS
 10
  9.3600
 20
  3.8300
 30
0.0
 40
  0.0500
 1

 0
POLYLINE
 8
PARTS
 66
1
 10
0.0
 20
0.0
 30
0.0
 0
VERTEX
 8
PARTS
 10
  9.0000
 20
  3.8000
 30
0.0
 0
VERTEX
 8
PARTS
 10
  9.0300
 20
  3.8300
 30
0.0
 0
SEQEND
 8
PARTS
 0
POLYLINE
 8
PARTS
 66
1
 10
0.0
 20
0.0
 30
0.0
 0
VERTEX
 8
PARTS
 10
  9.0300
 20
  3.8300
 30
0.0
 0
VERTEX
 8
PARTS
 10
  9.0900
 20
  3.7700
 30
0.0
 0
SEQEND
 8
PARTS
 0
POLYLINE
 8
PARTS
 66
1
 10
0.0
 20
0.0
 30
0.0
 0
VERTEX
 8
PARTS
 10
  9.0900
 20
  3.7700
 30
0.0
 0
VERTEX
 8
PARTS
 10
  9.1500
 20
  3.8300
 30
0.0
 0
SEQEND
 8
PARTS
 0
POLYLINE
 8
PARTS
 66
1
 10
0.0
 20
0.0
 30
0.0
 0
VERTEX
 8
PARTS
 10
  9.1500
 20
  3.8300
 30
0.0
 0
VERTEX
 8
PARTS
 10
  9.2100
 20
  3.7700
 30
0.0
 0
SEQEND
 8
PARTS
 0
POLYLINE
 8
PARTS
 66
1
 10
0.0
 20
0.0
 30
0.0
 0
VERTEX
 8
PARTS
 10
  9.2100
 20
  3.7700
 30
0.0
 0
VERTEX
 8
PARTS
 10
  9.2700
 20
  3.8300
 30
0.0
 0
SEQEND
 8
PARTS
 0
POLYLINE
 8
PARTS
 66
1
 10
0.0
 20
0.0
 30
0.0
 0
VERTEX
 8
PARTS
 10
  9.2700
 20
  3.8300
 30
0.0
 0
VERTEX
 8
PARTS
 10
  9.3000
 20
  3.8000
 30
0.0
 0
SEQEND
 8
PARTS
 0
TEXT
 8
PARTTEXT
 10
  2.4500
 20
  6.2086
 30
0.0
 40
  0.0514
 1
F1A
 0
TEXT
 8
PARTTEXT
 10
  2.4500
 20
  5.7086
 30
0.0
 40
  0.0514
 1
74HCT14
 0
LINE
 8
PARTS
 10
  2.1000
 20
  6.0000
 30
0.0
 11
  2.4000
 21
  6.0000
 31
0.0
 0
TEXT
 8
PARTS
 10
  2.3000
 20
  6.0300
 30
0.0
 40
  0.0500
 1
1
 0
CIRCLE
 8
PARTS
 10
  2.8300
 20
  6.0000
 30
0.0
 40
  0.0300
 0
LINE
 8
PARTS
 10
  3.1000
 20
  6.0000
 30
0.0
 11
  2.8600
 21
  6.0000
 31
0.0
 0
TEXT
 8
PARTS
 10
  2.8600
 20
  6.0300
 30
0.0
 40
  0.0500
 1
2
 0
POLYLINE
 8
PARTS
 66
1
 10
0.0
 20
0.0
 30
0.0
 0
VERTEX
 8
PARTS
 10
  2.4000
 20
  6.2000
 30
0.0
 0
VERTEX
 8
PARTS
 10
  2.8000
 20
  6.0000
 30
0.0
 0
SEQEND
 8
PARTS
 0
POLYLINE
 8
PARTS
 66
1
 10
0.0
 20
0.0
 30
0.0
 0
VERTEX
 8
PARTS
 10
  2.8000
 20
  6.0000
 30
0.0
 0
VERTEX
 8
PARTS
 10
  2.4000
 20
  5.8000
 30
0.0
 0
SEQEND
 8
PARTS
 0
POLYLINE
 8
PARTS
 66
1
 10
0.0
 20
0.0
 30
0.0
 0
VERTEX
 8
PARTS
 10
  2.4000
 20
  5.8000
 30
0.0
 0
VERTEX
 8
PARTS
 10
  2.4000
 20
  6.2000
 30
0.0
 0
SEQEND
 8
PARTS
 0
TEXT
 8
PARTTEXT
 10
  1.5500
 20
  6.1086
 30
0.0
 40
  0.0514
 1
E1
 0
TEXT
 8
PARTTEXT
 10
  1.4200
 20
  5.8086
 30
0.0
 40
  0.0514
 1
.01u
 0
LINE
 8
PARTS
 10
  1.4000
 20
  6.0000
 30
0.0
 11
  1.5000
 21
  6.0000
 31
0.0
 0
TEXT
 8
PARTS
 10
  1.4400
 20
  6.0300
 30
0.0
 40
  0.0500
 1

 0
LINE
 8
PARTS
 10
  1.7000
 20
  6.0000
 30
0.0
 11
  1.6000
 21
  6.0000
 31
0.0
 0
TEXT
 8
PARTS
 10
  1.6600
 20
  6.0300
 30
0.0
 40
  0.0500
 1

 0
POLYLINE
 8
PARTS
 66
1
 10
0.0
 20
0.0
 30
0.0
 0
VERTEX
 8
PARTS
 10
  1.5000
 20
  6.0000
 30
0.0
 0
VERTEX
 8
PARTS
 10
  1.5200
 20
  6.0000
 30
0.0
 0
SEQEND
 8
PARTS
 0
POLYLINE
 8
PARTS
 66
1
 10
0.0
 20
0.0
 30
0.0
 0
VERTEX
 8
PARTS
 10
  1.5700
 20
  5.9100
 30
0.0
 0
VERTEX
 8
PARTS
 10
  1.5700
 20
  6.0900
 30
0.0
 0
SEQEND
 8
PARTS
 0
POLYLINE
 8
PARTS
 66
1
 10
0.0
 20
0.0
 30
0.0
 0
VERTEX
 8
PARTS
 10
  1.5200
 20
  5.9100
 30
0.0
 0
VERTEX
 8
PARTS
 10
  1.5200
 20
  6.0900
 30
0.0
 0
SEQEND
 8
PARTS
 0
POLYLINE
 8
PARTS
 66
1
 10
0.0
 20
0.0
 30
0.0
 0
VERTEX
 8
PARTS
 10
  1.6000
 20
  6.0000
 30
0.0
 0
VERTEX
 8
PARTS
 10
  1.5700
 20
  6.0000
 30
0.0
 0
SEQEND
 8
PARTS
 0
TEXT
 8
PARTTEXT
 10
  6.4500
 20
  6.8086
 30
0.0
 40
  0.0514
 1
F2B
 0
TEXT
 8
PARTTEXT
 10
  6.4500
 20
  5.7086
 30
0.0
 40
  0.0514
 1
74LS123
 0
LINE
 8
PARTS
 10
  6.1000
 20
  6.7000
 30
0.0
 11
  6.4000
 21
  6.7000
 31
0.0
 0
TEXT
 8
PARTS
 10
  6.4900
 20
  6.6750
 30
0.0
 40
  0.0500
 1
CEXT
 0
TEXT
 8
PARTS
 10
  6.3000
 20
  6.7300
 30
0.0
 40
  0.0500
 1
6
 0
LINE
 8
PARTS
 10
  6.1000
 20
  6.3000
 30
0.0
 11
  6.4000
 21
  6.3000
 31
0.0
 0
TEXT
 8
PARTS
 10
  6.4900
 20
  6.2750
 30
0.0
 40
  0.0500
 1
REXT/CEXT
 0
TEXT
 8
PARTS
 10
  6.3000
 20
  6.3300
 30
0.0
 40
  0.0500
 1
7
 0
CIRCLE
 8
PARTS
 10
  6.3700
 20
  6.1000
 30
0.0
 40
  0.0300
 0
LINE
 8
PARTS
 10
  6.1000
 20
  6.1000
 30
0.0
 11
  6.3400
 21
  6.1000
 31
0.0
 0
TEXT
 8
PARTS
 10
  6.4900
 20
  6.0750
 30
0.0
 40
  0.0500
 1
A
 0
TEXT
 8
PARTS
 10
  6.3000
 20
  6.1300
 30
0.0
 40
  0.0500
 1
9
 0
LINE
 8
PARTS
 10
  6.1000
 20
  6.0000
 30
0.0
 11
  6.4000
 21
  6.0000
 31
0.0
 0
TEXT
 8
PARTS
 10
  6.4900
 20
  5.9750
 30
0.0
 40
  0.0500
 1
B
 0
TEXT
 8
PARTS
 10
  6.2600
 20
  6.0300
 30
0.0
 40
  0.0500
 1
10
 0
CIRCLE
 8
PARTS
 10
  6.3700
 20
  5.9000
 30
0.0
 40
  0.0300
 0
LINE
 8
PARTS
 10
  6.1000
 20
  5.9000
 30
0.0
 11
  6.3400
 21
  5.9000
 31
0.0
 0
TEXT
 8
PARTS
 10
  6.4900
 20
  5.8750
 30
0.0
 40
  0.0500
 1
CLR
 0
TEXT
 8
PARTS
 10
  6.2600
 20
  5.9300
 30
0.0
 40
  0.0500
 1
11
 0
LINE
 8
PARTS
 10
  7.7000
 20
  6.1000
 30
0.0
 11
  7.4000
 21
  6.1000
 31
0.0
 0
TEXT
 8
PARTS
 10
  7.2700
 20
  6.0750
 30
0.0
 40
  0.0500
 1
Q
 0
TEXT
 8
PARTS
 10
  7.4600
 20
  6.1300
 30
0.0
 40
  0.0500
 1
5
 0
LINE
 8
PARTS
 10
  7.7000
 20
  5.9000
 30
0.0
 11
  7.4000
 21
  5.9000
 31
0.0
 0
TEXT
 8
PARTS
 10
  7.2700
 20
  5.8750
 30
0.0
 40
  0.0500
 1
%%oQ%%o
 0
TEXT
 8
PARTS
 10
  7.4600
 20
  5.9300
 30
0.0
 40
  0.0500
 1
12
 0
POLYLINE
 8
PARTS
 66
1
 70
1
 10
0.0
 20
0.0
 30
0.0
 0
VERTEX
 8
PARTS
 10
  6.4000
 20
  6.8000
 30
0.0
 0
VERTEX
 8
PARTS
 10
  7.4000
 20
  6.8000
 30
0.0
 0
VERTEX
 8
PARTS
 10
  7.4000
 20
  5.8000
 30
0.0
 0
VERTEX
 8
PARTS
 10
  6.4000
 20
  5.8000
 30
0.0
 0
SEQEND
 8
PARTS
 0
TEXT
 8
PARTTEXT
 10
  7.5500
 20
  3.9086
 30
0.0
 40
  0.0514
 1
D?
 0
TEXT
 8
PARTTEXT
 10
  7.5500
 20
  3.6086
 30
0.0
 40
  0.0514
 1
LED
 0
LINE
 8
PARTS
 10
  8.0000
 20
  3.8000
 30
0.0
 11
  7.9000
 21
  3.8000
 31
0.0
 0
TEXT
 8
PARTS
 10
  7.9600
 20
  3.8300
 30
0.0
 40
  0.0500
 1

 0
LINE
 8
PARTS
 10
  7.4000
 20
  3.8000
 30
0.0
 11
  7.5000
 21
  3.8000
 31
0.0
 0
TEXT
 8
PARTS
 10
  7.4400
 20
  3.8300
 30
0.0
 40
  0.0500
 1

 0
POLYLINE
 8
PARTS
 66
1
 70
1
 10
0.0
 20
0.0
 30
0.0
 0
VERTEX
 8
PARTS
 10
  7.8000
 20
  3.7000
 30
0.0
 0
VERTEX
 8
PARTS
 10
  7.8000
 20
  3.9000
 30
0.0
 0
VERTEX
 8
PARTS
 10
  7.7000
 20
  3.8000
 30
0.0
 0
VERTEX
 8
PARTS
 10
  7.8000
 20
  3.7000
 30
0.0
 0
SEQEND
 8
PARTS
 0
POLYLINE
 8
PARTS
 66
1
 70
1
 10
0.0
 20
0.0
 30
0.0
 0
VERTEX
 8
PARTS
 10
  7.6400
 20
  3.7000
 30
0.0
 0
VERTEX
 8
PARTS
 10
  7.6000
 20
  3.7000
 30
0.0
 0
VERTEX
 8
PARTS
 10
  7.6000
 20
  3.7400
 30
0.0
 0
VERTEX
 8
PARTS
 10
  7.6400
 20
  3.7000
 30
0.0
 0
SEQEND
 8
PARTS
 0
POLYLINE
 8
PARTS
 66
1
 70
1
 10
0.0
 20
0.0
 30
0.0
 0
VERTEX
 8
PARTS
 10
  7.5200
 20
  3.7000
 30
0.0
 0
VERTEX
 8
PARTS
 10
  7.5600
 20
  3.7000
 30
0.0
 0
VERTEX
 8
PARTS
 10
  7.5200
 20
  3.7400
 30
0.0
 0
VERTEX
 8
PARTS
 10
  7.5200
 20
  3.7000
 30
0.0
 0
SEQEND
 8
PARTS
 0
POLYLINE
 8
PARTS
 66
1
 10
0.0
 20
0.0
 30
0.0
 0
VERTEX
 8
PARTS
 10
  7.7000
 20
  3.7000
 30
0.0
 0
VERTEX
 8
PARTS
 10
  7.7000
 20
  3.9000
 30
0.0
 0
SEQEND
 8
PARTS
 0
POLYLINE
 8
PARTS
 66
1
 10
0.0
 20
0.0
 30
0.0
 0
VERTEX
 8
PARTS
 10
  7.9000
 20
  3.8000
 30
0.0
 0
VERTEX
 8
PARTS
 10
  7.8000
 20
  3.8000
 30
0.0
 0
SEQEND
 8
PARTS
 0
POLYLINE
 8
PARTS
 66
1
 10
0.0
 20
0.0
 30
0.0
 0
VERTEX
 8
PARTS
 10
  7.7000
 20
  3.8000
 30
0.0
 0
VERTEX
 8
PARTS
 10
  7.5000
 20
  3.8000
 30
0.0
 0
SEQEND
 8
PARTS
 0
POLYLINE
 8
PARTS
 66
1
 10
0.0
 20
0.0
 30
0.0
 0
VERTEX
 8
PARTS
 10
  7.6200
 20
  3.7200
 30
0.0
 0
VERTEX
 8
PARTS
 10
  7.6700
 20
  3.7700
 30
0.0
 0
SEQEND
 8
PARTS
 0
POLYLINE
 8
PARTS
 66
1
 10
0.0
 20
0.0
 30
0.0
 0
VERTEX
 8
PARTS
 10
  7.5400
 20
  3.7200
 30
0.0
 0
VERTEX
 8
PARTS
 10
  7.5900
 20
  3.7700
 30
0.0
 0
SEQEND
 8
PARTS
 0
TEXT
 8
PARTTEXT
 10
 11.4900
 20
  8.5186
 30
0.0
 40
  0.0514
 1
E1
 0
TEXT
 8
PARTTEXT
 10
 11.4900
 20
  8.4286
 30
0.0
 40
  0.0514
 1
1K
 0
LINE
 8
PARTS
 10
 11.3000
 20
  8.7000
 30
0.0
 11
 11.3000
 21
  8.6000
 31
0.0
 0
TEXT
 8
PARTS
 10
 11.2700
 20
  8.6600
 30
0.0
 40
  0.0500
 50
 90.0000
 1

 0
LINE
 8
PARTS
 10
 11.3000
 20
  8.2000
 30
0.0
 11
 11.3000
 21
  8.3000
 31
0.0
 0
TEXT
 8
PARTS
 10
 11.2700
 20
  8.1800
 30
0.0
 40
  0.0500
 50
 90.0000
 1

 0
POLYLINE
 8
PARTS
 66
1
 10
0.0
 20
0.0
 30
0.0
 0
VERTEX
 8
PARTS
 10
 11.3000
 20
  8.6000
 30
0.0
 0
VERTEX
 8
PARTS
 10
 11.3300
 20
  8.5700
 30
0.0
 0
SEQEND
 8
PARTS
 0
POLYLINE
 8
PARTS
 66
1
 10
0.0
 20
0.0
 30
0.0
 0
VERTEX
 8
PARTS
 10
 11.3300
 20
  8.5700
 30
0.0
 0
VERTEX
 8
PARTS
 10
 11.2700
 20
  8.5100
 30
0.0
 0
SEQEND
 8
PARTS
 0
POLYLINE
 8
PARTS
 66
1
 10
0.0
 20
0.0
 30
0.0
 0
VERTEX
 8
PARTS
 10
 11.2700
 20
  8.5100
 30
0.0
 0
VERTEX
 8
PARTS
 10
 11.3300
 20
  8.4500
 30
0.0
 0
SEQEND
 8
PARTS
 0
POLYLINE
 8
PARTS
 66
1
 10
0.0
 20
0.0
 30
0.0
 0
VERTEX
 8
PARTS
 10
 11.3300
 20
  8.4500
 30
0.0
 0
VERTEX
 8
PARTS
 10
 11.2700
 20
  8.3900
 30
0.0
 0
SEQEND
 8
PARTS
 0
POLYLINE
 8
PARTS
 66
1
 10
0.0
 20
0.0
 30
0.0
 0
VERTEX
 8
PARTS
 10
 11.2700
 20
  8.3900
 30
0.0
 0
VERTEX
 8
PARTS
 10
 11.3300
 20
  8.3300
 30
0.0
 0
SEQEND
 8
PARTS
 0
POLYLINE
 8
PARTS
 66
1
 10
0.0
 20
0.0
 30
0.0
 0
VERTEX
 8
PARTS
 10
 11.3300
 20
  8.3300
 30
0.0
 0
VERTEX
 8
PARTS
 10
 11.3000
 20
  8.3000
 30
0.0
 0
SEQEND
 8
PARTS
 0
TEXT
 8
PARTTEXT
 10
  3.4500
 20
  6.2086
 30
0.0
 40
  0.0514
 1
F1B
 0
TEXT
 8
PARTTEXT
 10
  3.4500
 20
  5.7086
 30
0.0
 40
  0.0514
 1
74HCT14
 0
LINE
 8
PARTS
 10
  3.1000
 20
  6.0000
 30
0.0
 11
  3.4000
 21
  6.0000
 31
0.0
 0
TEXT
 8
PARTS
 10
  3.3000
 20
  6.0300
 30
0.0
 40
  0.0500
 1
3
 0
CIRCLE
 8
PARTS
 10
  3.8300
 20
  6.0000
 30
0.0
 40
  0.0300
 0
LINE
 8
PARTS
 10
  4.1000
 20
  6.0000
 30
0.0
 11
  3.8600
 21
  6.0000
 31
0.0
 0
TEXT
 8
PARTS
 10
  3.8600
 20
  6.0300
 30
0.0
 40
  0.0500
 1
4
 0
POLYLINE
 8
PARTS
 66
1
 10
0.0
 20
0.0
 30
0.0
 0
VERTEX
 8
PARTS
 10
  3.4000
 20
  6.2000
 30
0.0
 0
VERTEX
 8
PARTS
 10
  3.8000
 20
  6.0000
 30
0.0
 0
SEQEND
 8
PARTS
 0
POLYLINE
 8
PARTS
 66
1
 10
0.0
 20
0.0
 30
0.0
 0
VERTEX
 8
PARTS
 10
  3.8000
 20
  6.0000
 30
0.0
 0
VERTEX
 8
PARTS
 10
  3.4000
 20
  5.8000
 30
0.0
 0
SEQEND
 8
PARTS
 0
POLYLINE
 8
PARTS
 66
1
 10
0.0
 20
0.0
 30
0.0
 0
VERTEX
 8
PARTS
 10
  3.4000
 20
  5.8000
 30
0.0
 0
VERTEX
 8
PARTS
 10
  3.4000
 20
  6.2000
 30
0.0
 0
SEQEND
 8
PARTS
 0
TEXT
 8
PARTTEXT
 10
  2.5500
 20
  3.1086
 30
0.0
 40
  0.0514
 1
F1F
 0
TEXT
 8
PARTTEXT
 10
  2.5500
 20
  2.6086
 30
0.0
 40
  0.0514
 1
74HCT14
 0
LINE
 8
PARTS
 10
  2.2000
 20
  2.9000
 30
0.0
 11
  2.5000
 21
  2.9000
 31
0.0
 0
TEXT
 8
PARTS
 10
  2.3600
 20
  2.9300
 30
0.0
 40
  0.0500
 1
13
 0
CIRCLE
 8
PARTS
 10
  2.9300
 20
  2.9000
 30
0.0
 40
  0.0300
 0
LINE
 8
PARTS
 10
  3.2000
 20
  2.9000
 30
0.0
 11
  2.9600
 21
  2.9000
 31
0.0
 0
TEXT
 8
PARTS
 10
  2.9600
 20
  2.9300
 30
0.0
 40
  0.0500
 1
12
 0
POLYLINE
 8
PARTS
 66
1
 10
0.0
 20
0.0
 30
0.0
 0
VERTEX
 8
PARTS
 10
  2.5000
 20
  3.1000
 30
0.0
 0
VERTEX
 8
PARTS
 10
  2.9000
 20
  2.9000
 30
0.0
 0
SEQEND
 8
PARTS
 0
POLYLINE
 8
PARTS
 66
1
 10
0.0
 20
0.0
 30
0.0
 0
VERTEX
 8
PARTS
 10
  2.9000
 20
  2.9000
 30
0.0
 0
VERTEX
 8
PARTS
 10
  2.5000
 20
  2.7000
 30
0.0
 0
SEQEND
 8
PARTS
 0
POLYLINE
 8
PARTS
 66
1
 10
0.0
 20
0.0
 30
0.0
 0
VERTEX
 8
PARTS
 10
  2.5000
 20
  2.7000
 30
0.0
 0
VERTEX
 8
PARTS
 10
  2.5000
 20
  3.1000
 30
0.0
 0
SEQEND
 8
PARTS
 0
TEXT
 8
PARTTEXT
 10
  6.4500
 20
  4.6086
 30
0.0
 40
  0.0514
 1
D?
 0
TEXT
 8
PARTTEXT
 10
  6.4500
 20
  4.3086
 30
0.0
 40
  0.0514
 1
LED
 0
LINE
 8
PARTS
 10
  6.9000
 20
  4.5000
 30
0.0
 11
  6.8000
 21
  4.5000
 31
0.0
 0
TEXT
 8
PARTS
 10
  6.8600
 20
  4.5300
 30
0.0
 40
  0.0500
 1

 0
LINE
 8
PARTS
 10
  6.3000
 20
  4.5000
 30
0.0
 11
  6.4000
 21
  4.5000
 31
0.0
 0
TEXT
 8
PARTS
 10
  6.3400
 20
  4.5300
 30
0.0
 40
  0.0500
 1

 0
POLYLINE
 8
PARTS
 66
1
 70
1
 10
0.0
 20
0.0
 30
0.0
 0
VERTEX
 8
PARTS
 10
  6.7000
 20
  4.4000
 30
0.0
 0
VERTEX
 8
PARTS
 10
  6.7000
 20
  4.6000
 30
0.0
 0
VERTEX
 8
PARTS
 10
  6.6000
 20
  4.5000
 30
0.0
 0
VERTEX
 8
PARTS
 10
  6.7000
 20
  4.4000
 30
0.0
 0
SEQEND
 8
PARTS
 0
POLYLINE
 8
PARTS
 66
1
 70
1
 10
0.0
 20
0.0
 30
0.0
 0
VERTEX
 8
PARTS
 10
  6.5400
 20
  4.4000
 30
0.0
 0
VERTEX
 8
PARTS
 10
  6.5000
 20
  4.4000
 30
0.0
 0
VERTEX
 8
PARTS
 10
  6.5000
 20
  4.4400
 30
0.0
 0
VERTEX
 8
PARTS
 10
  6.5400
 20
  4.4000
 30
0.0
 0
SEQEND
 8
PARTS
 0
POLYLINE
 8
PARTS
 66
1
 70
1
 10
0.0
 20
0.0
 30
0.0
 0
VERTEX
 8
PARTS
 10
  6.4200
 20
  4.4000
 30
0.0
 0
VERTEX
 8
PARTS
 10
  6.4600
 20
  4.4000
 30
0.0
 0
VERTEX
 8
PARTS
 10
  6.4200
 20
  4.4400
 30
0.0
 0
VERTEX
 8
PARTS
 10
  6.4200
 20
  4.4000
 30
0.0
 0
SEQEND
 8
PARTS
 0
POLYLINE
 8
PARTS
 66
1
 10
0.0
 20
0.0
 30
0.0
 0
VERTEX
 8
PARTS
 10
  6.6000
 20
  4.4000
 30
0.0
 0
VERTEX
 8
PARTS
 10
  6.6000
 20
  4.6000
 30
0.0
 0
SEQEND
 8
PARTS
 0
POLYLINE
 8
PARTS
 66
1
 10
0.0
 20
0.0
 30
0.0
 0
VERTEX
 8
PARTS
 10
  6.8000
 20
  4.5000
 30
0.0
 0
VERTEX
 8
PARTS
 10
  6.7000
 20
  4.5000
 30
0.0
 0
SEQEND
 8
PARTS
 0
POLYLINE
 8
PARTS
 66
1
 10
0.0
 20
0.0
 30
0.0
 0
VERTEX
 8
PARTS
 10
  6.6000
 20
  4.5000
 30
0.0
 0
VERTEX
 8
PARTS
 10
  6.4000
 20
  4.5000
 30
0.0
 0
SEQEND
 8
PARTS
 0
POLYLINE
 8
PARTS
 66
1
 10
0.0
 20
0.0
 30
0.0
 0
VERTEX
 8
PARTS
 10
  6.5200
 20
  4.4200
 30
0.0
 0
VERTEX
 8
PARTS
 10
  6.5700
 20
  4.4700
 30
0.0
 0
SEQEND
 8
PARTS
 0
POLYLINE
 8
PARTS
 66
1
 10
0.0
 20
0.0
 30
0.0
 0
VERTEX
 8
PARTS
 10
  6.4400
 20
  4.4200
 30
0.0
 0
VERTEX
 8
PARTS
 10
  6.4900
 20
  4.4700
 30
0.0
 0
SEQEND
 8
PARTS
 0
TEXT
 8
PARTTEXT
 10
  6.0900
 20
  6.5186
 30
0.0
 40
  0.0514
 1
E1
 0
TEXT
 8
PARTTEXT
 10
  6.0900
 20
  6.4286
 30
0.0
 40
  0.0514
 1
22u
 0
LINE
 8
PARTS
 10
  5.9000
 20
  6.3000
 30
0.0
 11
  5.9000
 21
  6.4000
 31
0.0
 0
TEXT
 8
PARTS
 10
  5.8700
 20
  6.2800
 30
0.0
 40
  0.0500
 50
 90.0000
 1

 0
LINE
 8
PARTS
 10
  5.9000
 20
  6.7000
 30
0.0
 11
  5.9000
 21
  6.6000
 31
0.0
 0
TEXT
 8
PARTS
 10
  5.8700
 20
  6.6600
 30
0.0
 40
  0.0500
 50
 90.0000
 1

 0
POLYLINE
 8
PARTS
 66
1
 10
0.0
 20
0.0
 30
0.0
 0
VERTEX
 8
PARTS
 10
  5.9000
 20
  6.5400
 30
0.0
 0
VERTEX
 8
PARTS
 10
  5.9000
 20
  6.6000
 30
0.0
 0
SEQEND
 8
PARTS
 0
POLYLINE
 8
PARTS
 66
1
 10
0.0
 20
0.0
 30
0.0
 0
VERTEX
 8
PARTS
 10
  6.0000
 20
  6.5000
 30
0.0
 0
VERTEX
 8
PARTS
 10
  5.8000
 20
  6.5000
 30
0.0
 0
SEQEND
 8
PARTS
 0
POLYLINE
 8
PARTS
 66
1
 10
0.0
 20
0.0
 30
0.0
 0
VERTEX
 8
PARTS
 10
  5.9000
 20
  6.4000
 30
0.0
 0
VERTEX
 8
PARTS
 10
  5.9000
 20
  6.5000
 30
0.0
 0
SEQEND
 8
PARTS
 0
POLYLINE
 8
PARTS
 66
1
 10
0.0
 20
0.0
 30
0.0
 0
VERTEX
 8
PARTS
 10
  5.8000
 20
  6.5700
 30
0.0
 42
  0.1654
 0
VERTEX
 8
PARTS
 10
  5.9000
 20
  6.5400
 30
0.0
 0
SEQEND
 8
PARTS
 0
POLYLINE
 8
PARTS
 66
1
 10
0.0
 20
0.0
 30
0.0
 0
VERTEX
 8
PARTS
 10
  5.9000
 20
  6.5400
 30
0.0
 42
  0.1654
 0
VERTEX
 8
PARTS
 10
  6.0000
 20
  6.5700
 30
0.0
 0
SEQEND
 8
PARTS
 0
TEXT
 8
PARTTEXT
 10
  5.8700
 20
  6.5014
 30
0.0
 40
  0.0514
 50
180.0000
 1
+
 0
TEXT
 8
PARTTEXT
 10
  4.8500
 20
  4.0086
 30
0.0
 40
  0.0514
 1
A2B
 0
TEXT
 8
PARTTEXT
 10
  4.8500
 20
  3.5086
 30
0.0
 40
  0.0514
 1
74AS1004
 0
LINE
 8
PARTS
 10
  4.5000
 20
  3.8000
 30
0.0
 11
  4.8000
 21
  3.8000
 31
0.0
 0
TEXT
 8
PARTS
 10
  4.7000
 20
  3.8300
 30
0.0
 40
  0.0500
 1
3
 0
CIRCLE
 8
PARTS
 10
  5.2300
 20
  3.8000
 30
0.0
 40
  0.0300
 0
LINE
 8
PARTS
 10
  5.5000
 20
  3.8000
 30
0.0
 11
  5.2600
 21
  3.8000
 31
0.0
 0
TEXT
 8
PARTS
 10
  5.2600
 20
  3.8300
 30
0.0
 40
  0.0500
 1
4
 0
POLYLINE
 8
PARTS
 66
1
 10
0.0
 20
0.0
 30
0.0
 0
VERTEX
 8
PARTS
 10
  4.8000
 20
  4.0000
 30
0.0
 0
VERTEX
 8
PARTS
 10
  5.2000
 20
  3.8000
 30
0.0
 0
SEQEND
 8
PARTS
 0
POLYLINE
 8
PARTS
 66
1
 10
0.0
 20
0.0
 30
0.0
 0
VERTEX
 8
PARTS
 10
  5.2000
 20
  3.8000
 30
0.0
 0
VERTEX
 8
PARTS
 10
  4.8000
 20
  3.6000
 30
0.0
 0
SEQEND
 8
PARTS
 0
POLYLINE
 8
PARTS
 66
1
 10
0.0
 20
0.0
 30
0.0
 0
VERTEX
 8
PARTS
 10
  4.8000
 20
  3.6000
 30
0.0
 0
VERTEX
 8
PARTS
 10
  4.8000
 20
  4.0000
 30
0.0
 0
SEQEND
 8
PARTS
 0
TEXT
 8
PARTTEXT
 10
  2.0900
 20
  5.8186
 30
0.0
 40
  0.0514
 1
E1
 0
TEXT
 8
PARTTEXT
 10
  2.0900
 20
  5.7286
 30
0.0
 40
  0.0514
 1
51
 0
LINE
 8
PARTS
 10
  1.9000
 20
  6.0000
 30
0.0
 11
  1.9000
 21
  5.9000
 31
0.0
 0
TEXT
 8
PARTS
 10
  1.8700
 20
  5.9600
 30
0.0
 40
  0.0500
 50
 90.0000
 1

 0
LINE
 8
PARTS
 10
  1.9000
 20
  5.5000
 30
0.0
 11
  1.9000
 21
  5.6000
 31
0.0
 0
TEXT
 8
PARTS
 10
  1.8700
 20
  5.4800
 30
0.0
 40
  0.0500
 50
 90.0000
 1

 0
POLYLINE
 8
PARTS
 66
1
 10
0.0
 20
0.0
 30
0.0
 0
VERTEX
 8
PARTS
 10
  1.9000
 20
  5.9000
 30
0.0
 0
VERTEX
 8
PARTS
 10
  1.9300
 20
  5.8700
 30
0.0
 0
SEQEND
 8
PARTS
 0
POLYLINE
 8
PARTS
 66
1
 10
0.0
 20
0.0
 30
0.0
 0
VERTEX
 8
PARTS
 10
  1.9300
 20
  5.8700
 30
0.0
 0
VERTEX
 8
PARTS
 10
  1.8700
 20
  5.8100
 30
0.0
 0
SEQEND
 8
PARTS
 0
POLYLINE
 8
PARTS
 66
1
 10
0.0
 20
0.0
 30
0.0
 0
VERTEX
 8
PARTS
 10
  1.8700
 20
  5.8100
 30
0.0
 0
VERTEX
 8
PARTS
 10
  1.9300
 20
  5.7500
 30
0.0
 0
SEQEND
 8
PARTS
 0
POLYLINE
 8
PARTS
 66
1
 10
0.0
 20
0.0
 30
0.0
 0
VERTEX
 8
PARTS
 10
  1.9300
 20
  5.7500
 30
0.0
 0
VERTEX
 8
PARTS
 10
  1.8700
 20
  5.6900
 30
0.0
 0
SEQEND
 8
PARTS
 0
POLYLINE
 8
PARTS
 66
1
 10
0.0
 20
0.0
 30
0.0
 0
VERTEX
 8
PARTS
 10
  1.8700
 20
  5.6900
 30
0.0
 0
VERTEX
 8
PARTS
 10
  1.9300
 20
  5.6300
 30
0.0
 0
SEQEND
 8
PARTS
 0
POLYLINE
 8
PARTS
 66
1
 10
0.0
 20
0.0
 30
0.0
 0
VERTEX
 8
PARTS
 10
  1.9300
 20
  5.6300
 30
0.0
 0
VERTEX
 8
PARTS
 10
  1.9000
 20
  5.6000
 30
0.0
 0
SEQEND
 8
PARTS
 0
TEXT
 8
PARTTEXT
 10
  2.5500
 20
  4.3086
 30
0.0
 40
  0.0514
 1
F1D
 0
TEXT
 8
PARTTEXT
 10
  2.5500
 20
  3.8086
 30
0.0
 40
  0.0514
 1
74HCT14
 0
LINE
 8
PARTS
 10
  2.2000
 20
  4.1000
 30
0.0
 11
  2.5000
 21
  4.1000
 31
0.0
 0
TEXT
 8
PARTS
 10
  2.4000
 20
  4.1300
 30
0.0
 40
  0.0500
 1
9
 0
CIRCLE
 8
PARTS
 10
  2.9300
 20
  4.1000
 30
0.0
 40
  0.0300
 0
LINE
 8
PARTS
 10
  3.2000
 20
  4.1000
 30
0.0
 11
  2.9600
 21
  4.1000
 31
0.0
 0
TEXT
 8
PARTS
 10
  2.9600
 20
  4.1300
 30
0.0
 40
  0.0500
 1
8
 0
POLYLINE
 8
PARTS
 66
1
 10
0.0
 20
0.0
 30
0.0
 0
VERTEX
 8
PARTS
 10
  2.5000
 20
  4.3000
 30
0.0
 0
VERTEX
 8
PARTS
 10
  2.9000
 20
  4.1000
 30
0.0
 0
SEQEND
 8
PARTS
 0
POLYLINE
 8
PARTS
 66
1
 10
0.0
 20
0.0
 30
0.0
 0
VERTEX
 8
PARTS
 10
  2.9000
 20
  4.1000
 30
0.0
 0
VERTEX
 8
PARTS
 10
  2.5000
 20
  3.9000
 30
0.0
 0
SEQEND
 8
PARTS
 0
POLYLINE
 8
PARTS
 66
1
 10
0.0
 20
0.0
 30
0.0
 0
VERTEX
 8
PARTS
 10
  2.5000
 20
  3.9000
 30
0.0
 0
VERTEX
 8
PARTS
 10
  2.5000
 20
  4.3000
 30
0.0
 0
SEQEND
 8
PARTS
 0
TEXT
 8
PARTTEXT
 10
  2.5500
 20
  3.7086
 30
0.0
 40
  0.0514
 1
F1E
 0
TEXT
 8
PARTTEXT
 10
  2.5500
 20
  3.2086
 30
0.0
 40
  0.0514
 1
74HCT14
 0
LINE
 8
PARTS
 10
  2.2000
 20
  3.5000
 30
0.0
 11
  2.5000
 21
  3.5000
 31
0.0
 0
TEXT
 8
PARTS
 10
  2.3600
 20
  3.5300
 30
0.0
 40
  0.0500
 1
11
 0
CIRCLE
 8
PARTS
 10
  2.9300
 20
  3.5000
 30
0.0
 40
  0.0300
 0
LINE
 8
PARTS
 10
  3.2000
 20
  3.5000
 30
0.0
 11
  2.9600
 21
  3.5000
 31
0.0
 0
TEXT
 8
PARTS
 10
  2.9600
 20
  3.5300
 30
0.0
 40
  0.0500
 1
10
 0
POLYLINE
 8
PARTS
 66
1
 10
0.0
 20
0.0
 30
0.0
 0
VERTEX
 8
PARTS
 10
  2.5000
 20
  3.7000
 30
0.0
 0
VERTEX
 8
PARTS
 10
  2.9000
 20
  3.5000
 30
0.0
 0
SEQEND
 8
PARTS
 0
POLYLINE
 8
PARTS
 66
1
 10
0.0
 20
0.0
 30
0.0
 0
VERTEX
 8
PARTS
 10
  2.9000
 20
  3.5000
 30
0.0
 0
VERTEX
 8
PARTS
 10
  2.5000
 20
  3.3000
 30
0.0
 0
SEQEND
 8
PARTS
 0
POLYLINE
 8
PARTS
 66
1
 10
0.0
 20
0.0
 30
0.0
 0
VERTEX
 8
PARTS
 10
  2.5000
 20
  3.3000
 30
0.0
 0
VERTEX
 8
PARTS
 10
  2.5000
 20
  3.7000
 30
0.0
 0
SEQEND
 8
PARTS
 0
TEXT
 8
PARTTEXT
 10
  7.0500
 20
  8.7086
 30
0.0
 40
  0.0514
 1
E1
 0
TEXT
 8
PARTTEXT
 10
  7.0500
 20
  8.4086
 30
0.0
 40
  0.0514
 1
6.8K
 0
LINE
 8
PARTS
 10
  6.9000
 20
  8.6000
 30
0.0
 11
  7.0000
 21
  8.6000
 31
0.0
 0
TEXT
 8
PARTS
 10
  6.9400
 20
  8.6300
 30
0.0
 40
  0.0500
 1

 0
LINE
 8
PARTS
 10
  7.4000
 20
  8.6000
 30
0.0
 11
  7.3000
 21
  8.6000
 31
0.0
 0
TEXT
 8
PARTS
 10
  7.3600
 20
  8.6300
 30
0.0
 40
  0.0500
 1

 0
POLYLINE
 8
PARTS
 66
1
 10
0.0
 20
0.0
 30
0.0
 0
VERTEX
 8
PARTS
 10
  7.0000
 20
  8.6000
 30
0.0
 0
VERTEX
 8
PARTS
 10
  7.0300
 20
  8.6300
 30
0.0
 0
SEQEND
 8
PARTS
 0
POLYLINE
 8
PARTS
 66
1
 10
0.0
 20
0.0
 30
0.0
 0
VERTEX
 8
PARTS
 10
  7.0300
 20
  8.6300
 30
0.0
 0
VERTEX
 8
PARTS
 10
  7.0900
 20
  8.5700
 30
0.0
 0
SEQEND
 8
PARTS
 0
POLYLINE
 8
PARTS
 66
1
 10
0.0
 20
0.0
 30
0.0
 0
VERTEX
 8
PARTS
 10
  7.0900
 20
  8.5700
 30
0.0
 0
VERTEX
 8
PARTS
 10
  7.1500
 20
  8.6300
 30
0.0
 0
SEQEND
 8
PARTS
 0
POLYLINE
 8
PARTS
 66
1
 10
0.0
 20
0.0
 30
0.0
 0
VERTEX
 8
PARTS
 10
  7.1500
 20
  8.6300
 30
0.0
 0
VERTEX
 8
PARTS
 10
  7.2100
 20
  8.5700
 30
0.0
 0
SEQEND
 8
PARTS
 0
POLYLINE
 8
PARTS
 66
1
 10
0.0
 20
0.0
 30
0.0
 0
VERTEX
 8
PARTS
 10
  7.2100
 20
  8.5700
 30
0.0
 0
VERTEX
 8
PARTS
 10
  7.2700
 20
  8.6300
 30
0.0
 0
SEQEND
 8
PARTS
 0
POLYLINE
 8
PARTS
 66
1
 10
0.0
 20
0.0
 30
0.0
 0
VERTEX
 8
PARTS
 10
  7.2700
 20
  8.6300
 30
0.0
 0
VERTEX
 8
PARTS
 10
  7.3000
 20
  8.6000
 30
0.0
 0
SEQEND
 8
PARTS
 0
TEXT
 8
PARTTEXT
 10
  3.0500
 20
  8.4086
 30
0.0
 40
  0.0514
 1
A1A
 0
TEXT
 8
PARTTEXT
 10
  3.0500
 20
  8.3086
 30
0.0
 40
  0.0514
 1
MC10125
 0
CIRCLE
 8
PARTS
 10
  2.9700
 20
  8.2000
 30
0.0
 40
  0.0300
 0
LINE
 8
PARTS
 10
  2.7000
 20
  8.2000
 30
0.0
 11
  2.9400
 21
  8.2000
 31
0.0
 0
TEXT
 8
PARTS
 10
  2.9000
 20
  8.2300
 30
0.0
 40
  0.0500
 1
2
 0
LINE
 8
PARTS
 10
  2.7000
 20
  8.0000
 30
0.0
 11
  3.0000
 21
  8.0000
 31
0.0
 0
TEXT
 8
PARTS
 10
  2.9000
 20
  8.0300
 30
0.0
 40
  0.0500
 1
3
 0
LINE
 8
PARTS
 10
  3.7000
 20
  8.1000
 30
0.0
 11
  3.4000
 21
  8.1000
 31
0.0
 0
TEXT
 8
PARTS
 10
  3.4600
 20
  8.1300
 30
0.0
 40
  0.0500
 1
4
 0
LINE
 8
PARTS
 10
  3.0000
 20
  7.6000
 30
0.0
 11
  3.0000
 21
  7.9000
 31
0.0
 0
TEXT
 8
PARTS
 10
  2.9700
 20
  7.7800
 30
0.0
 40
  0.0500
 50
 90.0000
 1
16
 0
LINE
 8
PARTS
 10
  3.1000
 20
  7.6000
 30
0.0
 11
  3.1000
 21
  7.9000
 31
0.0
 0
TEXT
 8
PARTS
 10
  3.0700
 20
  7.7800
 30
0.0
 40
  0.0500
 50
 90.0000
 1
1
 0
POLYLINE
 8
PARTS
 66
1
 10
0.0
 20
0.0
 30
0.0
 0
VERTEX
 8
PARTS
 10
  3.0000
 20
  8.3000
 30
0.0
 0
VERTEX
 8
PARTS
 10
  3.4000
 20
  8.1000
 30
0.0
 0
SEQEND
 8
PARTS
 0
POLYLINE
 8
PARTS
 66
1
 10
0.0
 20
0.0
 30
0.0
 0
VERTEX
 8
PARTS
 10
  3.4000
 20
  8.1000
 30
0.0
 0
VERTEX
 8
PARTS
 10
  3.0000
 20
  7.9000
 30
0.0
 0
SEQEND
 8
PARTS
 0
POLYLINE
 8
PARTS
 66
1
 10
0.0
 20
0.0
 30
0.0
 0
VERTEX
 8
PARTS
 10
  3.0000
 20
  7.9000
 30
0.0
 0
VERTEX
 8
PARTS
 10
  3.0000
 20
  8.3000
 30
0.0
 0
SEQEND
 8
PARTS
 0
POLYLINE
 8
PARTS
 66
1
 10
0.0
 20
0.0
 30
0.0
 0
VERTEX
 8
PARTS
 10
  3.1000
 20
  7.9000
 30
0.0
 0
VERTEX
 8
PARTS
 10
  3.1000
 20
  7.9500
 30
0.0
 0
SEQEND
 8
PARTS
 0
TEXT
 8
PARTTEXT
 10
  4.8500
 20
  4.7086
 30
0.0
 40
  0.0514
 1
A2A
 0
TEXT
 8
PARTTEXT
 10
  4.8500
 20
  4.2086
 30
0.0
 40
  0.0514
 1
74AS1004
 0
LINE
 8
PARTS
 10
  4.5000
 20
  4.5000
 30
0.0
 11
  4.8000
 21
  4.5000
 31
0.0
 0
TEXT
 8
PARTS
 10
  4.7000
 20
  4.5300
 30
0.0
 40
  0.0500
 1
1
 0
CIRCLE
 8
PARTS
 10
  5.2300
 20
  4.5000
 30
0.0
 40
  0.0300
 0
LINE
 8
PARTS
 10
  5.5000
 20
  4.5000
 30
0.0
 11
  5.2600
 21
  4.5000
 31
0.0
 0
TEXT
 8
PARTS
 10
  5.2600
 20
  4.5300
 30
0.0
 40
  0.0500
 1
2
 0
POLYLINE
 8
PARTS
 66
1
 10
0.0
 20
0.0
 30
0.0
 0
VERTEX
 8
PARTS
 10
  4.8000
 20
  4.7000
 30
0.0
 0
VERTEX
 8
PARTS
 10
  5.2000
 20
  4.5000
 30
0.0
 0
SEQEND
 8
PARTS
 0
POLYLINE
 8
PARTS
 66
1
 10
0.0
 20
0.0
 30
0.0
 0
VERTEX
 8
PARTS
 10
  5.2000
 20
  4.5000
 30
0.0
 0
VERTEX
 8
PARTS
 10
  4.8000
 20
  4.3000
 30
0.0
 0
SEQEND
 8
PARTS
 0
POLYLINE
 8
PARTS
 66
1
 10
0.0
 20
0.0
 30
0.0
 0
VERTEX
 8
PARTS
 10
  4.8000
 20
  4.3000
 30
0.0
 0
VERTEX
 8
PARTS
 10
  4.8000
 20
  4.7000
 30
0.0
 0
SEQEND
 8
PARTS
 0
TEXT
 8
PARTTEXT
 10
  7.6900
 20
  8.8186
 30
0.0
 40
  0.0514
 1
E1
 0
TEXT
 8
PARTTEXT
 10
  7.0800
 20
  8.8386
 30
0.0
 40
  0.0514
 1
62pF
 0
LINE
 8
PARTS
 10
  7.5000
 20
  9.0000
 30
0.0
 11
  7.5000
 21
  8.9000
 31
0.0
 0
TEXT
 8
PARTS
 10
  7.4700
 20
  8.9600
 30
0.0
 40
  0.0500
 50
 90.0000
 1

 0
LINE
 8
PARTS
 10
  7.5000
 20
  8.7000
 30
0.0
 11
  7.5000
 21
  8.8000
 31
0.0
 0
TEXT
 8
PARTS
 10
  7.4700
 20
  8.6800
 30
0.0
 40
  0.0500
 50
 90.0000
 1

 0
POLYLINE
 8
PARTS
 66
1
 10
0.0
 20
0.0
 30
0.0
 0
VERTEX
 8
PARTS
 10
  7.5000
 20
  8.9000
 30
0.0
 0
VERTEX
 8
PARTS
 10
  7.5000
 20
  8.8800
 30
0.0
 0
SEQEND
 8
PARTS
 0
POLYLINE
 8
PARTS
 66
1
 10
0.0
 20
0.0
 30
0.0
 0
VERTEX
 8
PARTS
 10
  7.4100
 20
  8.8300
 30
0.0
 0
VERTEX
 8
PARTS
 10
  7.5900
 20
  8.8300
 30
0.0
 0
SEQEND
 8
PARTS
 0
POLYLINE
 8
PARTS
 66
1
 10
0.0
 20
0.0
 30
0.0
 0
VERTEX
 8
PARTS
 10
  7.4100
 20
  8.8800
 30
0.0
 0
VERTEX
 8
PARTS
 10
  7.5900
 20
  8.8800
 30
0.0
 0
SEQEND
 8
PARTS
 0
POLYLINE
 8
PARTS
 66
1
 10
0.0
 20
0.0
 30
0.0
 0
VERTEX
 8
PARTS
 10
  7.5000
 20
  8.8000
 30
0.0
 0
VERTEX
 8
PARTS
 10
  7.5000
 20
  8.8300
 30
0.0
 0
SEQEND
 8
PARTS
 0
TEXT
 8
PARTTEXT
 10
  5.4500
 20
  6.4086
 30
0.0
 40
  0.0514
 1
E1
 0
TEXT
 8
PARTTEXT
 10
  5.4500
 20
  6.1086
 30
0.0
 40
  0.0514
 1
220K
 0
LINE
 8
PARTS
 10
  5.3000
 20
  6.3000
 30
0.0
 11
  5.4000
 21
  6.3000
 31
0.0
 0
TEXT
 8
PARTS
 10
  5.3400
 20
  6.3300
 30
0.0
 40
  0.0500
 1

 0
LINE
 8
PARTS
 10
  5.8000
 20
  6.3000
 30
0.0
 11
  5.7000
 21
  6.3000
 31
0.0
 0
TEXT
 8
PARTS
 10
  5.7600
 20
  6.3300
 30
0.0
 40
  0.0500
 1

 0
POLYLINE
 8
PARTS
 66
1
 10
0.0
 20
0.0
 30
0.0
 0
VERTEX
 8
PARTS
 10
  5.4000
 20
  6.3000
 30
0.0
 0
VERTEX
 8
PARTS
 10
  5.4300
 20
  6.3300
 30
0.0
 0
SEQEND
 8
PARTS
 0
POLYLINE
 8
PARTS
 66
1
 10
0.0
 20
0.0
 30
0.0
 0
VERTEX
 8
PARTS
 10
  5.4300
 20
  6.3300
 30
0.0
 0
VERTEX
 8
PARTS
 10
  5.4900
 20
  6.2700
 30
0.0
 0
SEQEND
 8
PARTS
 0
POLYLINE
 8
PARTS
 66
1
 10
0.0
 20
0.0
 30
0.0
 0
VERTEX
 8
PARTS
 10
  5.4900
 20
  6.2700
 30
0.0
 0
VERTEX
 8
PARTS
 10
  5.5500
 20
  6.3300
 30
0.0
 0
SEQEND
 8
PARTS
 0
POLYLINE
 8
PARTS
 66
1
 10
0.0
 20
0.0
 30
0.0
 0
VERTEX
 8
PARTS
 10
  5.5500
 20
  6.3300
 30
0.0
 0
VERTEX
 8
PARTS
 10
  5.6100
 20
  6.2700
 30
0.0
 0
SEQEND
 8
PARTS
 0
POLYLINE
 8
PARTS
 66
1
 10
0.0
 20
0.0
 30
0.0
 0
VERTEX
 8
PARTS
 10
  5.6100
 20
  6.2700
 30
0.0
 0
VERTEX
 8
PARTS
 10
  5.6700
 20
  6.3300
 30
0.0
 0
SEQEND
 8
PARTS
 0
POLYLINE
 8
PARTS
 66
1
 10
0.0
 20
0.0
 30
0.0
 0
VERTEX
 8
PARTS
 10
  5.6700
 20
  6.3300
 30
0.0
 0
VERTEX
 8
PARTS
 10
  5.7000
 20
  6.3000
 30
0.0
 0
SEQEND
 8
PARTS
 0
TEXT
 8
PARTTEXT
 10
  2.5500
 20
  4.9086
 30
0.0
 40
  0.0514
 1
F1C
 0
TEXT
 8
PARTTEXT
 10
  2.5500
 20
  4.4086
 30
0.0
 40
  0.0514
 1
74HCT14
 0
LINE
 8
PARTS
 10
  2.2000
 20
  4.7000
 30
0.0
 11
  2.5000
 21
  4.7000
 31
0.0
 0
TEXT
 8
PARTS
 10
  2.4000
 20
  4.7300
 30
0.0
 40
  0.0500
 1
5
 0
CIRCLE
 8
PARTS
 10
  2.9300
 20
  4.7000
 30
0.0
 40
  0.0300
 0
LINE
 8
PARTS
 10
  3.2000
 20
  4.7000
 30
0.0
 11
  2.9600
 21
  4.7000
 31
0.0
 0
TEXT
 8
PARTS
 10
  2.9600
 20
  4.7300
 30
0.0
 40
  0.0500
 1
6
 0
POLYLINE
 8
PARTS
 66
1
 10
0.0
 20
0.0
 30
0.0
 0
VERTEX
 8
PARTS
 10
  2.5000
 20
  4.9000
 30
0.0
 0
VERTEX
 8
PARTS
 10
  2.9000
 20
  4.7000
 30
0.0
 0
SEQEND
 8
PARTS
 0
POLYLINE
 8
PARTS
 66
1
 10
0.0
 20
0.0
 30
0.0
 0
VERTEX
 8
PARTS
 10
  2.9000
 20
  4.7000
 30
0.0
 0
VERTEX
 8
PARTS
 10
  2.5000
 20
  4.5000
 30
0.0
 0
SEQEND
 8
PARTS
 0
POLYLINE
 8
PARTS
 66
1
 10
0.0
 20
0.0
 30
0.0
 0
VERTEX
 8
PARTS
 10
  2.5000
 20
  4.5000
 30
0.0
 0
VERTEX
 8
PARTS
 10
  2.5000
 20
  4.9000
 30
0.0
 0
SEQEND
 8
PARTS
 0
TEXT
 8
PARTTEXT
 10
  7.8500
 20
  4.6086
 30
0.0
 40
  0.0514
 1
R?
 0
TEXT
 8
PARTTEXT
 10
  7.8500
 20
  4.3086
 30
0.0
 40
  0.0514
 1
180
 0
LINE
 8
PARTS
 10
  7.7000
 20
  4.5000
 30
0.0
 11
  7.8000
 21
  4.5000
 31
0.0
 0
TEXT
 8
PARTS
 10
  7.7400
 20
  4.5300
 30
0.0
 40
  0.0500
 1

 0
LINE
 8
PARTS
 10
  8.2000
 20
  4.5000
 30
0.0
 11
  8.1000
 21
  4.5000
 31
0.0
 0
TEXT
 8
PARTS
 10
  8.1600
 20
  4.5300
 30
0.0
 40
  0.0500
 1

 0
POLYLINE
 8
PARTS
 66
1
 10
0.0
 20
0.0
 30
0.0
 0
VERTEX
 8
PARTS
 10
  7.8000
 20
  4.5000
 30
0.0
 0
VERTEX
 8
PARTS
 10
  7.8300
 20
  4.5300
 30
0.0
 0
SEQEND
 8
PARTS
 0
POLYLINE
 8
PARTS
 66
1
 10
0.0
 20
0.0
 30
0.0
 0
VERTEX
 8
PARTS
 10
  7.8300
 20
  4.5300
 30
0.0
 0
VERTEX
 8
PARTS
 10
  7.8900
 20
  4.4700
 30
0.0
 0
SEQEND
 8
PARTS
 0
POLYLINE
 8
PARTS
 66
1
 10
0.0
 20
0.0
 30
0.0
 0
VERTEX
 8
PARTS
 10
  7.8900
 20
  4.4700
 30
0.0
 0
VERTEX
 8
PARTS
 10
  7.9500
 20
  4.5300
 30
0.0
 0
SEQEND
 8
PARTS
 0
POLYLINE
 8
PARTS
 66
1
 10
0.0
 20
0.0
 30
0.0
 0
VERTEX
 8
PARTS
 10
  7.9500
 20
  4.5300
 30
0.0
 0
VERTEX
 8
PARTS
 10
  8.0100
 20
  4.4700
 30
0.0
 0
SEQEND
 8
PARTS
 0
POLYLINE
 8
PARTS
 66
1
 10
0.0
 20
0.0
 30
0.0
 0
VERTEX
 8
PARTS
 10
  8.0100
 20
  4.4700
 30
0.0
 0
VERTEX
 8
PARTS
 10
  8.0700
 20
  4.5300
 30
0.0
 0
SEQEND
 8
PARTS
 0
POLYLINE
 8
PARTS
 66
1
 10
0.0
 20
0.0
 30
0.0
 0
VERTEX
 8
PARTS
 10
  8.0700
 20
  4.5300
 30
0.0
 0
VERTEX
 8
PARTS
 10
  8.1000
 20
  4.5000
 30
0.0
 0
SEQEND
 8
PARTS
 0
TEXT
 8
PARTTEXT
 10
  4.9900
 20
  8.5086
 30
0.0
 40
  0.0514
 1
D1B
 0
TEXT
 8
PARTTEXT
 10
  4.9900
 20
  7.7186
 30
0.0
 40
  0.0514
 1
74F74
 0
LINE
 8
PARTS
 10
  4.0000
 20
  8.3000
 30
0.0
 11
  4.3000
 21
  8.3000
 31
0.0
 0
TEXT
 8
PARTS
 10
  4.3900
 20
  8.2750
 30
0.0
 40
  0.0500
 1
D
 0
TEXT
 8
PARTS
 10
  4.1600
 20
  8.3300
 30
0.0
 40
  0.0500
 1
12
 0
LINE
 8
PARTS
 10
  4.0000
 20
  8.1000
 30
0.0
 11
  4.3000
 21
  8.1000
 31
0.0
 0
LINE
 8
PARTS
 10
  4.3000
 20
  8.1600
 30
0.0
 11
  4.3600
 21
  8.1000
 31
0.0
 0
LINE
 8
PARTS
 10
  4.3600
 20
  8.1000
 30
0.0
 11
  4.3000
 21
  8.0400
 31
0.0
 0
TEXT
 8
PARTS
 10
  4.3900
 20
  8.0750
 30
0.0
 40
  0.0500
 1
CLK
 0
TEXT
 8
PARTS
 10
  4.1600
 20
  8.1300
 30
0.0
 40
  0.0500
 1
11
 0
LINE
 8
PARTS
 10
  5.2000
 20
  8.3000
 30
0.0
 11
  4.9000
 21
  8.3000
 31
0.0
 0
TEXT
 8
PARTS
 10
  4.7700
 20
  8.2750
 30
0.0
 40
  0.0500
 1
Q
 0
TEXT
 8
PARTS
 10
  4.9600
 20
  8.3300
 30
0.0
 40
  0.0500
 1
9
 0
LINE
 8
PARTS
 10
  5.2000
 20
  7.9000
 30
0.0
 11
  4.9000
 21
  7.9000
 31
0.0
 0
TEXT
 8
PARTS
 10
  4.7700
 20
  7.8750
 30
0.0
 40
  0.0500
 1
%%oQ%%o
 0
TEXT
 8
PARTS
 10
  4.9600
 20
  7.9300
 30
0.0
 40
  0.0500
 1
8
 0
CIRCLE
 8
PARTS
 10
  4.6000
 20
  8.4300
 30
0.0
 40
  0.0300
 0
LINE
 8
PARTS
 10
  4.6000
 20
  8.7000
 30
0.0
 11
  4.6000
 21
  8.4600
 31
0.0
 0
TEXT
 8
PARTS
 10
  4.6250
 20
  8.2300
 30
0.0
 40
  0.0500
 50
 90.0000
 1
PR
 0
TEXT
 8
PARTS
 10
  4.5700
 20
  8.4600
 30
0.0
 40
  0.0500
 50
 90.0000
 1
10
 0
CIRCLE
 8
PARTS
 10
  4.6000
 20
  7.7700
 30
0.0
 40
  0.0300
 0
LINE
 8
PARTS
 10
  4.6000
 20
  7.5000
 30
0.0
 11
  4.6000
 21
  7.7400
 31
0.0
 0
TEXT
 8
PARTS
 10
  4.6250
 20
  7.8900
 30
0.0
 40
  0.0500
 50
 90.0000
 1
CL
 0
TEXT
 8
PARTS
 10
  4.5700
 20
  7.6800
 30
0.0
 40
  0.0500
 50
 90.0000
 1
13
 0
POLYLINE
 8
PARTS
 66
1
 70
1
 10
0.0
 20
0.0
 30
0.0
 0
VERTEX
 8
PARTS
 10
  4.3000
 20
  8.4000
 30
0.0
 0
VERTEX
 8
PARTS
 10
  4.9000
 20
  8.4000
 30
0.0
 0
VERTEX
 8
PARTS
 10
  4.9000
 20
  7.8000
 30
0.0
 0
VERTEX
 8
PARTS
 10
  4.3000
 20
  7.8000
 30
0.0
 0
SEQEND
 8
PARTS
 0
TEXT
 8
PARTTEXT
 10
  2.1500
 20
  8.0286
 30
0.0
 40
  0.0514
 1
B1
 0
TEXT
 8
PARTTEXT
 10
  2.1500
 20
  7.9386
 30
0.0
 40
  0.0514
 1
100
 0
LINE
 8
PARTS
 10
  2.4000
 20
  8.2000
 30
0.0
 11
  2.4000
 21
  8.1000
 31
0.0
 0
TEXT
 8
PARTS
 10
  2.3700
 20
  8.1600
 30
0.0
 40
  0.0500
 50
 90.0000
 1

 0
LINE
 8
PARTS
 10
  2.4000
 20
  7.7000
 30
0.0
 11
  2.4000
 21
  7.8000
 31
0.0
 0
TEXT
 8
PARTS
 10
  2.3700
 20
  7.6800
 30
0.0
 40
  0.0500
 50
 90.0000
 1

 0
POLYLINE
 8
PARTS
 66
1
 10
0.0
 20
0.0
 30
0.0
 0
VERTEX
 8
PARTS
 10
  2.4000
 20
  8.1000
 30
0.0
 0
VERTEX
 8
PARTS
 10
  2.4300
 20
  8.0700
 30
0.0
 0
SEQEND
 8
PARTS
 0
POLYLINE
 8
PARTS
 66
1
 10
0.0
 20
0.0
 30
0.0
 0
VERTEX
 8
PARTS
 10
  2.4300
 20
  8.0700
 30
0.0
 0
VERTEX
 8
PARTS
 10
  2.3700
 20
  8.0100
 30
0.0
 0
SEQEND
 8
PARTS
 0
POLYLINE
 8
PARTS
 66
1
 10
0.0
 20
0.0
 30
0.0
 0
VERTEX
 8
PARTS
 10
  2.3700
 20
  8.0100
 30
0.0
 0
VERTEX
 8
PARTS
 10
  2.4300
 20
  7.9500
 30
0.0
 0
SEQEND
 8
PARTS
 0
POLYLINE
 8
PARTS
 66
1
 10
0.0
 20
0.0
 30
0.0
 0
VERTEX
 8
PARTS
 10
  2.4300
 20
  7.9500
 30
0.0
 0
VERTEX
 8
PARTS
 10
  2.3700
 20
  7.8900
 30
0.0
 0
SEQEND
 8
PARTS
 0
POLYLINE
 8
PARTS
 66
1
 10
0.0
 20
0.0
 30
0.0
 0
VERTEX
 8
PARTS
 10
  2.3700
 20
  7.8900
 30
0.0
 0
VERTEX
 8
PARTS
 10
  2.4300
 20
  7.8300
 30
0.0
 0
SEQEND
 8
PARTS
 0
POLYLINE
 8
PARTS
 66
1
 10
0.0
 20
0.0
 30
0.0
 0
VERTEX
 8
PARTS
 10
  2.4300
 20
  7.8300
 30
0.0
 0
VERTEX
 8
PARTS
 10
  2.4000
 20
  7.8000
 30
0.0
 0
SEQEND
 8
PARTS
 0
TEXT
 8
PARTTEXT
 10
  8.0500
 20
  9.1086
 30
0.0
 40
  0.0514
 1
F2A
 0
TEXT
 8
PARTTEXT
 10
  8.0500
 20
  8.0086
 30
0.0
 40
  0.0514
 1
74LS123
 0
LINE
 8
PARTS
 10
  7.7000
 20
  9.0000
 30
0.0
 11
  8.0000
 21
  9.0000
 31
0.0
 0
TEXT
 8
PARTS
 10
  8.0900
 20
  8.9750
 30
0.0
 40
  0.0500
 1
CEXT
 0
TEXT
 8
PARTS
 10
  7.8600
 20
  9.0300
 30
0.0
 40
  0.0500
 1
14
 0
LINE
 8
PARTS
 10
  7.7000
 20
  8.6000
 30
0.0
 11
  8.0000
 21
  8.6000
 31
0.0
 0
TEXT
 8
PARTS
 10
  8.0900
 20
  8.5750
 30
0.0
 40
  0.0500
 1
REXT/CEXT
 0
TEXT
 8
PARTS
 10
  7.8600
 20
  8.6300
 30
0.0
 40
  0.0500
 1
15
 0
CIRCLE
 8
PARTS
 10
  7.9700
 20
  8.4000
 30
0.0
 40
  0.0300
 0
LINE
 8
PARTS
 10
  7.7000
 20
  8.4000
 30
0.0
 11
  7.9400
 21
  8.4000
 31
0.0
 0
TEXT
 8
PARTS
 10
  8.0900
 20
  8.3750
 30
0.0
 40
  0.0500
 1
A
 0
TEXT
 8
PARTS
 10
  7.9000
 20
  8.4300
 30
0.0
 40
  0.0500
 1
1
 0
LINE
 8
PARTS
 10
  7.7000
 20
  8.3000
 30
0.0
 11
  8.0000
 21
  8.3000
 31
0.0
 0
TEXT
 8
PARTS
 10
  8.0900
 20
  8.2750
 30
0.0
 40
  0.0500
 1
B
 0
TEXT
 8
PARTS
 10
  7.9000
 20
  8.3300
 30
0.0
 40
  0.0500
 1
2
 0
CIRCLE
 8
PARTS
 10
  7.9700
 20
  8.2000
 30
0.0
 40
  0.0300
 0
LINE
 8
PARTS
 10
  7.7000
 20
  8.2000
 30
0.0
 11
  7.9400
 21
  8.2000
 31
0.0
 0
TEXT
 8
PARTS
 10
  8.0900
 20
  8.1750
 30
0.0
 40
  0.0500
 1
CLR
 0
TEXT
 8
PARTS
 10
  7.9000
 20
  8.2300
 30
0.0
 40
  0.0500
 1
3
 0
LINE
 8
PARTS
 10
  9.3000
 20
  8.4000
 30
0.0
 11
  9.0000
 21
  8.4000
 31
0.0
 0
TEXT
 8
PARTS
 10
  8.8700
 20
  8.3750
 30
0.0
 40
  0.0500
 1
Q
 0
TEXT
 8
PARTS
 10
  9.0600
 20
  8.4300
 30
0.0
 40
  0.0500
 1
13
 0
LINE
 8
PARTS
 10
  9.3000
 20
  8.2000
 30
0.0
 11
  9.0000
 21
  8.2000
 31
0.0
 0
TEXT
 8
PARTS
 10
  8.8700
 20
  8.1750
 30
0.0
 40
  0.0500
 1
%%oQ%%o
 0
TEXT
 8
PARTS
 10
  9.0600
 20
  8.2300
 30
0.0
 40
  0.0500
 1
4
 0
POLYLINE
 8
PARTS
 66
1
 70
1
 10
0.0
 20
0.0
 30
0.0
 0
VERTEX
 8
PARTS
 10
  8.0000
 20
  9.1000
 30
0.0
 0
VERTEX
 8
PARTS
 10
  9.0000
 20
  9.1000
 30
0.0
 0
VERTEX
 8
PARTS
 10
  9.0000
 20
  8.1000
 30
0.0
 0
VERTEX
 8
PARTS
 10
  8.0000
 20
  8.1000
 30
0.0
 0
SEQEND
 8
PARTS
 0
POLYLINE
 8
WIRE
 66
1
 10
0.0
 20
0.0
 30
0.0
 0
VERTEX
 8
WIRE
 10
  7.3000
 20
  9.3000
 30
0.0
 0
VERTEX
 8
WIRE
 10
  7.5000
 20
  9.3000
 30
0.0
 0
SEQEND
 8
WIRE
 0
POLYLINE
 8
WIRE
 66
1
 10
0.0
 20
0.0
 30
0.0
 0
VERTEX
 8
WIRE
 10
  7.5000
 20
  9.0000
 30
0.0
 0
VERTEX
 8
WIRE
 10
  7.7000
 20
  9.0000
 30
0.0
 0
SEQEND
 8
WIRE
 0
POLYLINE
 8
WIRE
 66
1
 70
1
 10
0.0
 20
0.0
 30
0.0
 40
  0.0200
 41
  0.0200
 0
VERTEX
 8
WIRE
 10
  7.4900
 20
  9.0000
 30
0.0
 42
1.0
 0
VERTEX
 8
WIRE
 10
  7.5100
 20
  9.0000
 30
0.0
 42
1.0
 0
SEQEND
 8
WIRE
 0
POLYLINE
 8
WIRE
 66
1
 10
0.0
 20
0.0
 30
0.0
 0
VERTEX
 8
WIRE
 10
  7.4000
 20
  8.6000
 30
0.0
 0
VERTEX
 8
WIRE
 10
  7.5000
 20
  8.6000
 30
0.0
 0
SEQEND
 8
WIRE
 0
POLYLINE
 8
WIRE
 66
1
 70
1
 10
0.0
 20
0.0
 30
0.0
 40
  0.0200
 41
  0.0200
 0
VERTEX
 8
WIRE
 10
  7.4900
 20
  8.6000
 30
0.0
 42
1.0
 0
VERTEX
 8
WIRE
 10
  7.5100
 20
  8.6000
 30
0.0
 42
1.0
 0
SEQEND
 8
WIRE
 0
POLYLINE
 8
WIRE
 66
1
 10
0.0
 20
0.0
 30
0.0
 0
VERTEX
 8
WIRE
 10
  7.4000
 20
  8.4000
 30
0.0
 0
VERTEX
 8
WIRE
 10
  7.7000
 20
  8.4000
 30
0.0
 0
SEQEND
 8
WIRE
 0
POLYLINE
 8
WIRE
 66
1
 10
0.0
 20
0.0
 30
0.0
 0
VERTEX
 8
WIRE
 10
  3.9000
 20
  8.3000
 30
0.0
 0
VERTEX
 8
WIRE
 10
  4.0000
 20
  8.3000
 30
0.0
 0
SEQEND
 8
WIRE
 0
POLYLINE
 8
WIRE
 66
1
 10
0.0
 20
0.0
 30
0.0
 0
VERTEX
 8
WIRE
 10
  5.2000
 20
  8.3000
 30
0.0
 0
VERTEX
 8
WIRE
 10
  6.0000
 20
  8.3000
 30
0.0
 0
SEQEND
 8
WIRE
 0
POLYLINE
 8
WIRE
 66
1
 70
1
 10
0.0
 20
0.0
 30
0.0
 40
  0.0200
 41
  0.0200
 0
VERTEX
 8
WIRE
 10
  5.9900
 20
  8.3000
 30
0.0
 42
1.0
 0
VERTEX
 8
WIRE
 10
  6.0100
 20
  8.3000
 30
0.0
 42
1.0
 0
SEQEND
 8
WIRE
 0
POLYLINE
 8
WIRE
 66
1
 10
0.0
 20
0.0
 30
0.0
 0
VERTEX
 8
WIRE
 10
  2.3000
 20
  8.2000
 30
0.0
 0
VERTEX
 8
WIRE
 10
  2.4000
 20
  8.2000
 30
0.0
 0
SEQEND
 8
WIRE
 0
POLYLINE
 8
WIRE
 66
1
 70
1
 10
0.0
 20
0.0
 30
0.0
 40
  0.0200
 41
  0.0200
 0
VERTEX
 8
WIRE
 10
  2.3900
 20
  8.2000
 30
0.0
 42
1.0
 0
VERTEX
 8
WIRE
 10
  2.4100
 20
  8.2000
 30
0.0
 42
1.0
 0
SEQEND
 8
WIRE
 0
POLYLINE
 8
WIRE
 66
1
 10
0.0
 20
0.0
 30
0.0
 0
VERTEX
 8
WIRE
 10
  7.5000
 20
  8.2000
 30
0.0
 0
VERTEX
 8
WIRE
 10
  7.7000
 20
  8.2000
 30
0.0
 0
SEQEND
 8
WIRE
 0
TEXT
 8
WIRETEXT
 10
  7.5000
 20
  8.2300
 30
0.0
 40
  0.0514
 1
PU
 0
POLYLINE
 8
WIRE
 66
1
 10
0.0
 20
0.0
 30
0.0
 0
VERTEX
 8
WIRE
 10
  3.7000
 20
  8.1000
 30
0.0
 0
VERTEX
 8
WIRE
 10
  4.0000
 20
  8.1000
 30
0.0
 0
SEQEND
 8
WIRE
 0
POLYLINE
 8
WIRE
 66
1
 10
0.0
 20
0.0
 30
0.0
 0
VERTEX
 8
WIRE
 10
  6.0000
 20
  8.1000
 30
0.0
 0
VERTEX
 8
WIRE
 10
  6.2000
 20
  8.1000
 30
0.0
 0
SEQEND
 8
WIRE
 0
POLYLINE
 8
WIRE
 66
1
 10
0.0
 20
0.0
 30
0.0
 0
VERTEX
 8
WIRE
 10
  5.2000
 20
  7.9000
 30
0.0
 0
VERTEX
 8
WIRE
 10
  5.5000
 20
  7.9000
 30
0.0
 0
SEQEND
 8
WIRE
 0
POLYLINE
 8
WIRE
 66
1
 10
0.0
 20
0.0
 30
0.0
 0
VERTEX
 8
WIRE
 10
 11.3000
 20
  7.9000
 30
0.0
 0
VERTEX
 8
WIRE
 10
 11.4000
 20
  7.9000
 30
0.0
 0
SEQEND
 8
WIRE
 0
POLYLINE
 8
WIRE
 66
1
 10
0.0
 20
0.0
 30
0.0
 0
VERTEX
 8
WIRE
 10
  2.3000
 20
  7.7000
 30
0.0
 0
VERTEX
 8
WIRE
 10
  2.4000
 20
  7.7000
 30
0.0
 0
SEQEND
 8
WIRE
 0
POLYLINE
 8
WIRE
 66
1
 70
1
 10
0.0
 20
0.0
 30
0.0
 40
  0.0200
 41
  0.0200
 0
VERTEX
 8
WIRE
 10
  2.3900
 20
  7.7000
 30
0.0
 42
1.0
 0
VERTEX
 8
WIRE
 10
  2.4100
 20
  7.7000
 30
0.0
 42
1.0
 0
SEQEND
 8
WIRE
 0
POLYLINE
 8
WIRE
 66
1
 10
0.0
 20
0.0
 30
0.0
 0
VERTEX
 8
WIRE
 10
  3.9000
 20
  7.3000
 30
0.0
 0
VERTEX
 8
WIRE
 10
  5.5000
 20
  7.3000
 30
0.0
 0
SEQEND
 8
WIRE
 0
POLYLINE
 8
WIRE
 66
1
 10
0.0
 20
0.0
 30
0.0
 0
VERTEX
 8
WIRE
 10
  5.7000
 20
  7.0000
 30
0.0
 0
VERTEX
 8
WIRE
 10
  5.9000
 20
  7.0000
 30
0.0
 0
SEQEND
 8
WIRE
 0
POLYLINE
 8
WIRE
 66
1
 10
0.0
 20
0.0
 30
0.0
 0
VERTEX
 8
WIRE
 10
  5.9000
 20
  6.7000
 30
0.0
 0
VERTEX
 8
WIRE
 10
  6.1000
 20
  6.7000
 30
0.0
 0
SEQEND
 8
WIRE
 0
POLYLINE
 8
WIRE
 66
1
 70
1
 10
0.0
 20
0.0
 30
0.0
 40
  0.0200
 41
  0.0200
 0
VERTEX
 8
WIRE
 10
  5.8900
 20
  6.7000
 30
0.0
 42
1.0
 0
VERTEX
 8
WIRE
 10
  5.9100
 20
  6.7000
 30
0.0
 42
1.0
 0
SEQEND
 8
WIRE
 0
POLYLINE
 8
WIRE
 66
1
 10
0.0
 20
0.0
 30
0.0
 0
VERTEX
 8
WIRE
 10
  5.8000
 20
  6.3000
 30
0.0
 0
VERTEX
 8
WIRE
 10
  5.9000
 20
  6.3000
 30
0.0
 0
SEQEND
 8
WIRE
 0
POLYLINE
 8
WIRE
 66
1
 70
1
 10
0.0
 20
0.0
 30
0.0
 40
  0.0200
 41
  0.0200
 0
VERTEX
 8
WIRE
 10
  5.8900
 20
  6.3000
 30
0.0
 42
1.0
 0
VERTEX
 8
WIRE
 10
  5.9100
 20
  6.3000
 30
0.0
 42
1.0
 0
SEQEND
 8
WIRE
 0
POLYLINE
 8
WIRE
 66
1
 10
0.0
 20
0.0
 30
0.0
 0
VERTEX
 8
WIRE
 10
  5.8000
 20
  6.1000
 30
0.0
 0
VERTEX
 8
WIRE
 10
  6.1000
 20
  6.1000
 30
0.0
 0
SEQEND
 8
WIRE
 0
POLYLINE
 8
WIRE
 66
1
 10
0.0
 20
0.0
 30
0.0
 0
VERTEX
 8
WIRE
 10
  1.7000
 20
  6.0000
 30
0.0
 0
VERTEX
 8
WIRE
 10
  1.9000
 20
  6.0000
 30
0.0
 0
SEQEND
 8
WIRE
 0
POLYLINE
 8
WIRE
 66
1
 70
1
 10
0.0
 20
0.0
 30
0.0
 40
  0.0200
 41
  0.0200
 0
VERTEX
 8
WIRE
 10
  1.8900
 20
  6.0000
 30
0.0
 42
1.0
 0
VERTEX
 8
WIRE
 10
  1.9100
 20
  6.0000
 30
0.0
 42
1.0
 0
SEQEND
 8
WIRE
 0
POLYLINE
 8
WIRE
 66
1
 10
0.0
 20
0.0
 30
0.0
 0
VERTEX
 8
WIRE
 10
  4.1000
 20
  6.0000
 30
0.0
 0
VERTEX
 8
WIRE
 10
  4.3000
 20
  6.0000
 30
0.0
 0
SEQEND
 8
WIRE
 0
POLYLINE
 8
WIRE
 66
1
 70
1
 10
0.0
 20
0.0
 30
0.0
 40
  0.0200
 41
  0.0200
 0
VERTEX
 8
WIRE
 10
  4.2900
 20
  6.0000
 30
0.0
 42
1.0
 0
VERTEX
 8
WIRE
 10
  4.3100
 20
  6.0000
 30
0.0
 42
1.0
 0
SEQEND
 8
WIRE
 0
POLYLINE
 8
WIRE
 66
1
 10
0.0
 20
0.0
 30
0.0
 0
VERTEX
 8
WIRE
 10
  5.9000
 20
  5.9000
 30
0.0
 0
VERTEX
 8
WIRE
 10
  6.1000
 20
  5.9000
 30
0.0
 0
SEQEND
 8
WIRE
 0
TEXT
 8
WIRETEXT
 10
  5.9000
 20
  5.9300
 30
0.0
 40
  0.0514
 1
PU
 0
POLYLINE
 8
WIRE
 66
1
 10
0.0
 20
0.0
 30
0.0
 0
VERTEX
 8
WIRE
 10
  4.3000
 20
  5.8000
 30
0.0
 0
VERTEX
 8
WIRE
 10
  4.5000
 20
  5.8000
 30
0.0
 0
SEQEND
 8
WIRE
 0
POLYLINE
 8
WIRE
 66
1
 10
0.0
 20
0.0
 30
0.0
 0
VERTEX
 8
WIRE
 10
  3.1000
 20
  5.4000
 30
0.0
 0
VERTEX
 8
WIRE
 10
  3.3000
 20
  5.4000
 30
0.0
 0
SEQEND
 8
WIRE
 0
POLYLINE
 8
WIRE
 66
1
 10
0.0
 20
0.0
 30
0.0
 0
VERTEX
 8
WIRE
 10
  4.4000
 20
  4.5000
 30
0.0
 0
VERTEX
 8
WIRE
 10
  4.5000
 20
  4.5000
 30
0.0
 0
SEQEND
 8
WIRE
 0
POLYLINE
 8
WIRE
 66
1
 70
1
 10
0.0
 20
0.0
 30
0.0
 40
  0.0200
 41
  0.0200
 0
VERTEX
 8
WIRE
 10
  4.4900
 20
  4.5000
 30
0.0
 42
1.0
 0
VERTEX
 8
WIRE
 10
  4.5100
 20
  4.5000
 30
0.0
 42
1.0
 0
SEQEND
 8
WIRE
 0
POLYLINE
 8
WIRE
 66
1
 10
0.0
 20
0.0
 30
0.0
 0
VERTEX
 8
WIRE
 10
  8.2000
 20
  4.5000
 30
0.0
 0
VERTEX
 8
WIRE
 10
  8.3000
 20
  4.5000
 30
0.0
 0
SEQEND
 8
WIRE
 0
POLYLINE
 8
WIRE
 66
1
 10
0.0
 20
0.0
 30
0.0
 0
VERTEX
 8
WIRE
 10
  9.4000
 20
  3.8000
 30
0.0
 0
VERTEX
 8
WIRE
 10
  9.5000
 20
  3.8000
 30
0.0
 0
SEQEND
 8
WIRE
 0
POLYLINE
 8
WIRE
 66
1
 10
0.0
 20
0.0
 30
0.0
 0
VERTEX
 8
WIRE
 10
  2.2000
 20
  4.7000
 30
0.0
 0
VERTEX
 8
WIRE
 10
  2.2000
 20
  4.1000
 30
0.0
 0
SEQEND
 8
WIRE
 0
POLYLINE
 8
WIRE
 66
1
 70
1
 10
0.0
 20
0.0
 30
0.0
 40
  0.0200
 41
  0.0200
 0
VERTEX
 8
WIRE
 10
  2.1900
 20
  4.1000
 30
0.0
 42
1.0
 0
VERTEX
 8
WIRE
 10
  2.2100
 20
  4.1000
 30
0.0
 42
1.0
 0
SEQEND
 8
WIRE
 0
POLYLINE
 8
WIRE
 66
1
 10
0.0
 20
0.0
 30
0.0
 0
VERTEX
 8
WIRE
 10
  2.7000
 20
  8.0000
 30
0.0
 0
VERTEX
 8
WIRE
 10
  2.7000
 20
  7.7000
 30
0.0
 0
SEQEND
 8
WIRE
 0
POLYLINE
 8
WIRE
 66
1
 10
0.0
 20
0.0
 30
0.0
 0
VERTEX
 8
WIRE
 10
  3.0000
 20
  7.6000
 30
0.0
 0
VERTEX
 8
WIRE
 10
  3.0000
 20
  7.5000
 30
0.0
 0
SEQEND
 8
WIRE
 0
POLYLINE
 8
WIRE
 66
1
 10
0.0
 20
0.0
 30
0.0
 0
VERTEX
 8
WIRE
 10
  3.1000
 20
  6.0000
 30
0.0
 0
VERTEX
 8
WIRE
 10
  3.1000
 20
  5.4000
 30
0.0
 0
SEQEND
 8
WIRE
 0
POLYLINE
 8
WIRE
 66
1
 70
1
 10
0.0
 20
0.0
 30
0.0
 40
  0.0200
 41
  0.0200
 0
VERTEX
 8
WIRE
 10
  3.0900
 20
  6.0000
 30
0.0
 42
1.0
 0
VERTEX
 8
WIRE
 10
  3.1100
 20
  6.0000
 30
0.0
 42
1.0
 0
SEQEND
 8
WIRE
 0
POLYLINE
 8
WIRE
 66
1
 10
0.0
 20
0.0
 30
0.0
 0
VERTEX
 8
WIRE
 10
  3.9000
 20
  8.3000
 30
0.0
 0
VERTEX
 8
WIRE
 10
  3.9000
 20
  7.3000
 30
0.0
 0
SEQEND
 8
WIRE
 0
POLYLINE
 8
WIRE
 66
1
 10
0.0
 20
0.0
 30
0.0
 0
VERTEX
 8
WIRE
 10
  4.3000
 20
  6.0000
 30
0.0
 0
VERTEX
 8
WIRE
 10
  4.3000
 20
  5.8000
 30
0.0
 0
SEQEND
 8
WIRE
 0
POLYLINE
 8
WIRE
 66
1
 10
0.0
 20
0.0
 30
0.0
 0
VERTEX
 8
WIRE
 10
  4.5000
 20
  4.5000
 30
0.0
 0
VERTEX
 8
WIRE
 10
  4.5000
 20
  3.8000
 30
0.0
 0
SEQEND
 8
WIRE
 0
POLYLINE
 8
WIRE
 66
1
 10
0.0
 20
0.0
 30
0.0
 0
VERTEX
 8
WIRE
 10
  4.6000
 20
  7.5000
 30
0.0
 0
VERTEX
 8
WIRE
 10
  4.6000
 20
  7.4000
 30
0.0
 0
SEQEND
 8
WIRE
 0
TEXT
 8
WIRETEXT
 10
  4.6000
 20
  7.4300
 30
0.0
 40
  0.0514
 1
PU
 0
POLYLINE
 8
WIRE
 66
1
 10
0.0
 20
0.0
 30
0.0
 0
VERTEX
 8
WIRE
 10
  5.5000
 20
  7.9000
 30
0.0
 0
VERTEX
 8
WIRE
 10
  5.5000
 20
  7.3000
 30
0.0
 0
SEQEND
 8
WIRE
 0
POLYLINE
 8
WIRE
 66
1
 10
0.0
 20
0.0
 30
0.0
 0
VERTEX
 8
WIRE
 10
  5.7000
 20
  7.0000
 30
0.0
 0
VERTEX
 8
WIRE
 10
  5.7000
 20
  6.9000
 30
0.0
 0
SEQEND
 8
WIRE
 0
POLYLINE
 8
WIRE
 66
1
 10
0.0
 20
0.0
 30
0.0
 0
VERTEX
 8
WIRE
 10
  5.8000
 20
  6.1000
 30
0.0
 0
VERTEX
 8
WIRE
 10
  5.8000
 20
  5.7000
 30
0.0
 0
SEQEND
 8
WIRE
 0
POLYLINE
 8
WIRE
 66
1
 10
0.0
 20
0.0
 30
0.0
 0
VERTEX
 8
WIRE
 10
  5.9000
 20
  7.0000
 30
0.0
 0
VERTEX
 8
WIRE
 10
  5.9000
 20
  6.7000
 30
0.0
 0
SEQEND
 8
WIRE
 0
POLYLINE
 8
WIRE
 66
1
 10
0.0
 20
0.0
 30
0.0
 0
VERTEX
 8
WIRE
 10
  6.0000
 20
  8.3000
 30
0.0
 0
VERTEX
 8
WIRE
 10
  6.0000
 20
  8.1000
 30
0.0
 0
SEQEND
 8
WIRE
 0
POLYLINE
 8
WIRE
 66
1
 10
0.0
 20
0.0
 30
0.0
 0
VERTEX
 8
WIRE
 10
  7.3000
 20
  9.3000
 30
0.0
 0
VERTEX
 8
WIRE
 10
  7.3000
 20
  9.2000
 30
0.0
 0
SEQEND
 8
WIRE
 0
POLYLINE
 8
WIRE
 66
1
 10
0.0
 20
0.0
 30
0.0
 0
VERTEX
 8
WIRE
 10
  7.4000
 20
  8.4000
 30
0.0
 0
VERTEX
 8
WIRE
 10
  7.4000
 20
  8.0000
 30
0.0
 0
SEQEND
 8
WIRE
 0
POLYLINE
 8
WIRE
 66
1
 10
0.0
 20
0.0
 30
0.0
 0
VERTEX
 8
WIRE
 10
  7.5000
 20
  9.3000
 30
0.0
 0
VERTEX
 8
WIRE
 10
  7.5000
 20
  9.0000
 30
0.0
 0
SEQEND
 8
WIRE
 0
POLYLINE
 8
WIRE
 66
1
 10
0.0
 20
0.0
 30
0.0
 0
VERTEX
 8
WIRE
 10
  7.5000
 20
  8.7000
 30
0.0
 0
VERTEX
 8
WIRE
 10
  7.5000
 20
  8.6000
 30
0.0
 0
SEQEND
 8
WIRE
 0
POLYLINE
 8
WIRE
 66
1
 10
0.0
 20
0.0
 30
0.0
 0
VERTEX
 8
WIRE
 10
  8.3000
 20
  4.7000
 30
0.0
 0
VERTEX
 8
WIRE
 10
  8.3000
 20
  4.5000
 30
0.0
 0
SEQEND
 8
WIRE
 0
POLYLINE
 8
WIRE
 66
1
 10
0.0
 20
0.0
 30
0.0
 0
VERTEX
 8
WIRE
 10
  9.5000
 20
  4.0000
 30
0.0
 0
VERTEX
 8
WIRE
 10
  9.5000
 20
  3.8000
 30
0.0
 0
SEQEND
 8
WIRE
 0
POLYLINE
 8
WIRE
 66
1
 10
0.0
 20
0.0
 30
0.0
 0
VERTEX
 8
WIRE
 10
 11.3000
 20
  8.2000
 30
0.0
 0
VERTEX
 8
WIRE
 10
 11.3000
 20
  7.9000
 30
0.0
 0
SEQEND
 8
WIRE
 0
TEXT
 8
WIRETEXT
 10
 11.3000
 20
  8.1300
 30
0.0
 40
  0.0514
 1
PU
 0
POLYLINE
 8
WIRE
 66
1
 10
0.0
 20
0.0
 30
0.0
 0
VERTEX
 8
WIRE
 10
  4.3000
 20
  6.0000
 30
0.0
 0
VERTEX
 8
WIRE
 10
  6.1000
 20
  6.0000
 30
0.0
 0
SEQEND
 8
WIRE
 0
POLYLINE
 8
WIRE
 66
1
 10
0.0
 20
0.0
 30
0.0
 0
VERTEX
 8
WIRE
 10
  6.0000
 20
  8.3000
 30
0.0
 0
VERTEX
 8
WIRE
 10
  7.7000
 20
  8.3000
 30
0.0
 0
SEQEND
 8
WIRE
 0
POLYLINE
 8
WIRE
 66
1
 10
0.0
 20
0.0
 30
0.0
 0
VERTEX
 8
WIRE
 10
  7.5000
 20
  8.6000
 30
0.0
 0
VERTEX
 8
WIRE
 10
  7.7000
 20
  8.6000
 30
0.0
 0
SEQEND
 8
WIRE
 0
POLYLINE
 8
WIRE
 66
1
 10
0.0
 20
0.0
 30
0.0
 0
VERTEX
 8
WIRE
 10
  1.9000
 20
  6.0000
 30
0.0
 0
VERTEX
 8
WIRE
 10
  2.1000
 20
  6.0000
 30
0.0
 0
SEQEND
 8
WIRE
 0
POLYLINE
 8
WIRE
 66
1
 10
0.0
 20
0.0
 30
0.0
 0
VERTEX
 8
WIRE
 10
  2.2000
 20
  2.9000
 30
0.0
 0
VERTEX
 8
WIRE
 10
  2.2000
 20
  2.7000
 30
0.0
 0
SEQEND
 8
WIRE
 0
POLYLINE
 8
WIRE
 66
1
 10
0.0
 20
0.0
 30
0.0
 0
VERTEX
 8
WIRE
 10
  2.2000
 20
  4.1000
 30
0.0
 0
VERTEX
 8
WIRE
 10
  2.2000
 20
  3.5000
 30
0.0
 0
SEQEND
 8
WIRE
 0
POLYLINE
 8
WIRE
 66
1
 70
1
 10
0.0
 20
0.0
 30
0.0
 40
  0.0200
 41
  0.0200
 0
VERTEX
 8
WIRE
 10
  2.1900
 20
  3.5000
 30
0.0
 42
1.0
 0
VERTEX
 8
WIRE
 10
  2.2100
 20
  3.5000
 30
0.0
 42
1.0
 0
SEQEND
 8
WIRE
 0
POLYLINE
 8
WIRE
 66
1
 10
0.0
 20
0.0
 30
0.0
 0
VERTEX
 8
WIRE
 10
  5.9000
 20
  6.3000
 30
0.0
 0
VERTEX
 8
WIRE
 10
  6.1000
 20
  6.3000
 30
0.0
 0
SEQEND
 8
WIRE
 0
POLYLINE
 8
WIRE
 66
1
 10
0.0
 20
0.0
 30
0.0
 0
VERTEX
 8
WIRE
 10
  2.2000
 20
  3.5000
 30
0.0
 0
VERTEX
 8
WIRE
 10
  2.2000
 20
  2.9000
 30
0.0
 0
SEQEND
 8
WIRE
 0
POLYLINE
 8
WIRE
 66
1
 70
1
 10
0.0
 20
0.0
 30
0.0
 40
  0.0200
 41
  0.0200
 0
VERTEX
 8
WIRE
 10
  2.1900
 20
  2.9000
 30
0.0
 42
1.0
 0
VERTEX
 8
WIRE
 10
  2.2100
 20
  2.9000
 30
0.0
 42
1.0
 0
SEQEND
 8
WIRE
 0
POLYLINE
 8
WIRE
 66
1
 10
0.0
 20
0.0
 30
0.0
 0
VERTEX
 8
WIRE
 10
  2.4000
 20
  8.2000
 30
0.0
 0
VERTEX
 8
WIRE
 10
  2.7000
 20
  8.2000
 30
0.0
 0
SEQEND
 8
WIRE
 0
POLYLINE
 8
WIRE
 66
1
 10
0.0
 20
0.0
 30
0.0
 0
VERTEX
 8
WIRE
 10
  2.4000
 20
  7.7000
 30
0.0
 0
VERTEX
 8
WIRE
 10
  2.7000
 20
  7.7000
 30
0.0
 0
SEQEND
 8
WIRE
 0
POLYLINE
 8
WIRE
 66
1
 10
0.0
 20
0.0
 30
0.0
 0
VERTEX
 8
WIRE
 10
  4.6000
 20
  8.7000
 30
0.0
 0
VERTEX
 8
WIRE
 10
  4.5000
 20
  8.7000
 30
0.0
 0
SEQEND
 8
WIRE
 0
TEXT
 8
WIRETEXT
 10
  4.5000
 20
  8.7400
 30
0.0
 40
  0.0514
 1
PU
 0
POLYLINE
 8
PARTS
 66
1
 10
0.0
 20
0.0
 30
0.0
 0
VERTEX
 8
PARTS
 10
  1.8000
 20
  5.5000
 30
0.0
 0
VERTEX
 8
PARTS
 10
  2.0000
 20
  5.5000
 30
0.0
 0
SEQEND
 8
PARTS
 0
POLYLINE
 8
PARTS
 66
1
 10
0.0
 20
0.0
 30
0.0
 0
VERTEX
 8
PARTS
 10
  1.8300
 20
  5.4700
 30
0.0
 0
VERTEX
 8
PARTS
 10
  1.9700
 20
  5.4700
 30
0.0
 0
SEQEND
 8
PARTS
 0
POLYLINE
 8
PARTS
 66
1
 10
0.0
 20
0.0
 30
0.0
 0
VERTEX
 8
PARTS
 10
  1.9400
 20
  5.4400
 30
0.0
 0
VERTEX
 8
PARTS
 10
  1.8600
 20
  5.4400
 30
0.0
 0
SEQEND
 8
PARTS
 0
POLYLINE
 8
PARTS
 66
1
 10
0.0
 20
0.0
 30
0.0
 0
VERTEX
 8
PARTS
 10
  1.8900
 20
  5.4100
 30
0.0
 0
VERTEX
 8
PARTS
 10
  1.9100
 20
  5.4100
 30
0.0
 0
SEQEND
 8
PARTS
 0
POLYLINE
 8
PARTS
 66
1
 10
0.0
 20
0.0
 30
0.0
 0
VERTEX
 8
PARTS
 10
  7.2000
 20
  9.2000
 30
0.0
 0
VERTEX
 8
PARTS
 10
  7.4000
 20
  9.2000
 30
0.0
 0
SEQEND
 8
PARTS
 0
POLYLINE
 8
PARTS
 66
1
 10
0.0
 20
0.0
 30
0.0
 0
VERTEX
 8
PARTS
 10
  7.2300
 20
  9.1700
 30
0.0
 0
VERTEX
 8
PARTS
 10
  7.3700
 20
  9.1700
 30
0.0
 0
SEQEND
 8
PARTS
 0
POLYLINE
 8
PARTS
 66
1
 10
0.0
 20
0.0
 30
0.0
 0
VERTEX
 8
PARTS
 10
  7.3400
 20
  9.1400
 30
0.0
 0
VERTEX
 8
PARTS
 10
  7.2600
 20
  9.1400
 30
0.0
 0
SEQEND
 8
PARTS
 0
POLYLINE
 8
PARTS
 66
1
 10
0.0
 20
0.0
 30
0.0
 0
VERTEX
 8
PARTS
 10
  7.2900
 20
  9.1100
 30
0.0
 0
VERTEX
 8
PARTS
 10
  7.3100
 20
  9.1100
 30
0.0
 0
SEQEND
 8
PARTS
 0
POLYLINE
 8
PARTS
 66
1
 10
0.0
 20
0.0
 30
0.0
 0
VERTEX
 8
PARTS
 10
  7.3000
 20
  8.0000
 30
0.0
 0
VERTEX
 8
PARTS
 10
  7.5000
 20
  8.0000
 30
0.0
 0
SEQEND
 8
PARTS
 0
POLYLINE
 8
PARTS
 66
1
 10
0.0
 20
0.0
 30
0.0
 0
VERTEX
 8
PARTS
 10
  7.3300
 20
  7.9700
 30
0.0
 0
VERTEX
 8
PARTS
 10
  7.4700
 20
  7.9700
 30
0.0
 0
SEQEND
 8
PARTS
 0
POLYLINE
 8
PARTS
 66
1
 10
0.0
 20
0.0
 30
0.0
 0
VERTEX
 8
PARTS
 10
  7.4400
 20
  7.9400
 30
0.0
 0
VERTEX
 8
PARTS
 10
  7.3600
 20
  7.9400
 30
0.0
 0
SEQEND
 8
PARTS
 0
POLYLINE
 8
PARTS
 66
1
 10
0.0
 20
0.0
 30
0.0
 0
VERTEX
 8
PARTS
 10
  7.3900
 20
  7.9100
 30
0.0
 0
VERTEX
 8
PARTS
 10
  7.4100
 20
  7.9100
 30
0.0
 0
SEQEND
 8
PARTS
 0
POLYLINE
 8
PARTS
 66
1
 10
0.0
 20
0.0
 30
0.0
 0
VERTEX
 8
PARTS
 10
  5.6000
 20
  6.9000
 30
0.0
 0
VERTEX
 8
PARTS
 10
  5.8000
 20
  6.9000
 30
0.0
 0
SEQEND
 8
PARTS
 0
POLYLINE
 8
PARTS
 66
1
 10
0.0
 20
0.0
 30
0.0
 0
VERTEX
 8
PARTS
 10
  5.6300
 20
  6.8700
 30
0.0
 0
VERTEX
 8
PARTS
 10
  5.7700
 20
  6.8700
 30
0.0
 0
SEQEND
 8
PARTS
 0
POLYLINE
 8
PARTS
 66
1
 10
0.0
 20
0.0
 30
0.0
 0
VERTEX
 8
PARTS
 10
  5.7400
 20
  6.8400
 30
0.0
 0
VERTEX
 8
PARTS
 10
  5.6600
 20
  6.8400
 30
0.0
 0
SEQEND
 8
PARTS
 0
POLYLINE
 8
PARTS
 66
1
 10
0.0
 20
0.0
 30
0.0
 0
VERTEX
 8
PARTS
 10
  5.6900
 20
  6.8100
 30
0.0
 0
VERTEX
 8
PARTS
 10
  5.7100
 20
  6.8100
 30
0.0
 0
SEQEND
 8
PARTS
 0
POLYLINE
 8
PARTS
 66
1
 10
0.0
 20
0.0
 30
0.0
 0
VERTEX
 8
PARTS
 10
  5.7000
 20
  5.7000
 30
0.0
 0
VERTEX
 8
PARTS
 10
  5.9000
 20
  5.7000
 30
0.0
 0
SEQEND
 8
PARTS
 0
POLYLINE
 8
PARTS
 66
1
 10
0.0
 20
0.0
 30
0.0
 0
VERTEX
 8
PARTS
 10
  5.7300
 20
  5.6700
 30
0.0
 0
VERTEX
 8
PARTS
 10
  5.8700
 20
  5.6700
 30
0.0
 0
SEQEND
 8
PARTS
 0
POLYLINE
 8
PARTS
 66
1
 10
0.0
 20
0.0
 30
0.0
 0
VERTEX
 8
PARTS
 10
  5.8400
 20
  5.6400
 30
0.0
 0
VERTEX
 8
PARTS
 10
  5.7600
 20
  5.6400
 30
0.0
 0
SEQEND
 8
PARTS
 0
POLYLINE
 8
PARTS
 66
1
 10
0.0
 20
0.0
 30
0.0
 0
VERTEX
 8
PARTS
 10
  5.7900
 20
  5.6100
 30
0.0
 0
VERTEX
 8
PARTS
 10
  5.8100
 20
  5.6100
 30
0.0
 0
SEQEND
 8
PARTS
 0
POLYLINE
 8
PARTS
 66
1
 10
0.0
 20
0.0
 30
0.0
 0
VERTEX
 8
PARTS
 10
  2.1000
 20
  2.7000
 30
0.0
 0
VERTEX
 8
PARTS
 10
  2.3000
 20
  2.7000
 30
0.0
 0
SEQEND
 8
PARTS
 0
POLYLINE
 8
PARTS
 66
1
 10
0.0
 20
0.0
 30
0.0
 0
VERTEX
 8
PARTS
 10
  2.1300
 20
  2.6700
 30
0.0
 0
VERTEX
 8
PARTS
 10
  2.2700
 20
  2.6700
 30
0.0
 0
SEQEND
 8
PARTS
 0
POLYLINE
 8
PARTS
 66
1
 10
0.0
 20
0.0
 30
0.0
 0
VERTEX
 8
PARTS
 10
  2.2400
 20
  2.6400
 30
0.0
 0
VERTEX
 8
PARTS
 10
  2.1600
 20
  2.6400
 30
0.0
 0
SEQEND
 8
PARTS
 0
POLYLINE
 8
PARTS
 66
1
 10
0.0
 20
0.0
 30
0.0
 0
VERTEX
 8
PARTS
 10
  2.1900
 20
  2.6100
 30
0.0
 0
VERTEX
 8
PARTS
 10
  2.2100
 20
  2.6100
 30
0.0
 0
SEQEND
 8
PARTS
 0
POLYLINE
 8
PARTS
 66
1
 10
0.0
 20
0.0
 30
0.0
 0
VERTEX
 8
PARTS
 10
  2.9000
 20
  7.5000
 30
0.0
 0
VERTEX
 8
PARTS
 10
  3.1000
 20
  7.5000
 30
0.0
 0
SEQEND
 8
PARTS
 0
POLYLINE
 8
PARTS
 66
1
 10
0.0
 20
0.0
 30
0.0
 0
VERTEX
 8
PARTS
 10
  2.9300
 20
  7.4700
 30
0.0
 0
VERTEX
 8
PARTS
 10
  3.0700
 20
  7.4700
 30
0.0
 0
SEQEND
 8
PARTS
 0
POLYLINE
 8
PARTS
 66
1
 10
0.0
 20
0.0
 30
0.0
 0
VERTEX
 8
PARTS
 10
  3.0400
 20
  7.4400
 30
0.0
 0
VERTEX
 8
PARTS
 10
  2.9600
 20
  7.4400
 30
0.0
 0
SEQEND
 8
PARTS
 0
POLYLINE
 8
PARTS
 66
1
 10
0.0
 20
0.0
 30
0.0
 0
VERTEX
 8
PARTS
 10
  2.9900
 20
  7.4100
 30
0.0
 0
VERTEX
 8
PARTS
 10
  3.0100
 20
  7.4100
 30
0.0
 0
SEQEND
 8
PARTS
 0
TEXT
 8
PARTTEXT
 10
 11.2000
 20
  8.8186
 30
0.0
 40
  0.0514
 1
VCC
 0
POLYLINE
 8
PARTS
 66
1
 10
0.0
 20
0.0
 30
0.0
 0
VERTEX
 8
PARTS
 10
 11.3000
 20
  8.7400
 30
0.0
 0
VERTEX
 8
PARTS
 10
 11.3000
 20
  8.7000
 30
0.0
 0
SEQEND
 8
PARTS
 0
POLYLINE
 8
PARTS
 66
1
 70
1
 10
0.0
 20
0.0
 30
0.0
 0
VERTEX
 8
PARTS
 10
 11.3300
 20
  8.7700
 30
0.0
 42
  0.0985
 0
VERTEX
 8
PARTS
 10
 11.3277
 20
  8.7815
 30
0.0
 42
  0.0985
 0
VERTEX
 8
PARTS
 10
 11.3212
 20
  8.7912
 30
0.0
 42
  0.0985
 0
VERTEX
 8
PARTS
 10
 11.3115
 20
  8.7977
 30
0.0
 42
  0.0985
 0
VERTEX
 8
PARTS
 10
 11.3000
 20
  8.8000
 30
0.0
 42
  0.0985
 0
VERTEX
 8
PARTS
 10
 11.2885
 20
  8.7977
 30
0.0
 42
  0.0985
 0
VERTEX
 8
PARTS
 10
 11.2788
 20
  8.7912
 30
0.0
 42
  0.0985
 0
VERTEX
 8
PARTS
 10
 11.2723
 20
  8.7815
 30
0.0
 42
  0.0985
 0
VERTEX
 8
PARTS
 10
 11.2700
 20
  8.7700
 30
0.0
 42
  0.0985
 0
VERTEX
 8
PARTS
 10
 11.2723
 20
  8.7585
 30
0.0
 42
  0.0985
 0
VERTEX
 8
PARTS
 10
 11.2788
 20
  8.7488
 30
0.0
 42
  0.0985
 0
VERTEX
 8
PARTS
 10
 11.2885
 20
  8.7423
 30
0.0
 42
  0.0985
 0
VERTEX
 8
PARTS
 10
 11.3000
 20
  8.7400
 30
0.0
 42
  0.0985
 0
VERTEX
 8
PARTS
 10
 11.3115
 20
  8.7423
 30
0.0
 42
  0.0985
 0
VERTEX
 8
PARTS
 10
 11.3212
 20
  8.7488
 30
0.0
 42
  0.0985
 0
VERTEX
 8
PARTS
 10
 11.3277
 20
  8.7585
 30
0.0
 42
  0.0985
 0
SEQEND
 8
PARTS
 0
TEXT
 8
PARTTEXT
 10
  8.2000
 20
  4.8186
 30
0.0
 40
  0.0514
 1
VCC
 0
POLYLINE
 8
PARTS
 66
1
 10
0.0
 20
0.0
 30
0.0
 0
VERTEX
 8
PARTS
 10
  8.3000
 20
  4.7400
 30
0.0
 0
VERTEX
 8
PARTS
 10
  8.3000
 20
  4.7000
 30
0.0
 0
SEQEND
 8
PARTS
 0
POLYLINE
 8
PARTS
 66
1
 70
1
 10
0.0
 20
0.0
 30
0.0
 0
VERTEX
 8
PARTS
 10
  8.3300
 20
  4.7700
 30
0.0
 42
  0.0985
 0
VERTEX
 8
PARTS
 10
  8.3277
 20
  4.7815
 30
0.0
 42
  0.0985
 0
VERTEX
 8
PARTS
 10
  8.3212
 20
  4.7912
 30
0.0
 42
  0.0985
 0
VERTEX
 8
PARTS
 10
  8.3115
 20
  4.7977
 30
0.0
 42
  0.0985
 0
VERTEX
 8
PARTS
 10
  8.3000
 20
  4.8000
 30
0.0
 42
  0.0985
 0
VERTEX
 8
PARTS
 10
  8.2885
 20
  4.7977
 30
0.0
 42
  0.0985
 0
VERTEX
 8
PARTS
 10
  8.2788
 20
  4.7912
 30
0.0
 42
  0.0985
 0
VERTEX
 8
PARTS
 10
  8.2723
 20
  4.7815
 30
0.0
 42
  0.0985
 0
VERTEX
 8
PARTS
 10
  8.2700
 20
  4.7700
 30
0.0
 42
  0.0985
 0
VERTEX
 8
PARTS
 10
  8.2723
 20
  4.7585
 30
0.0
 42
  0.0985
 0
VERTEX
 8
PARTS
 10
  8.2788
 20
  4.7488
 30
0.0
 42
  0.0985
 0
VERTEX
 8
PARTS
 10
  8.2885
 20
  4.7423
 30
0.0
 42
  0.0985
 0
VERTEX
 8
PARTS
 10
  8.3000
 20
  4.7400
 30
0.0
 42
  0.0985
 0
VERTEX
 8
PARTS
 10
  8.3115
 20
  4.7423
 30
0.0
 42
  0.0985
 0
VERTEX
 8
PARTS
 10
  8.3212
 20
  4.7488
 30
0.0
 42
  0.0985
 0
VERTEX
 8
PARTS
 10
  8.3277
 20
  4.7585
 30
0.0
 42
  0.0985
 0
SEQEND
 8
PARTS
 0
TEXT
 8
PARTTEXT
 10
  9.4000
 20
  4.1186
 30
0.0
 40
  0.0514
 1
VCC
 0
POLYLINE
 8
PARTS
 66
1
 10
0.0
 20
0.0
 30
0.0
 0
VERTEX
 8
PARTS
 10
  9.5000
 20
  4.0400
 30
0.0
 0
VERTEX
 8
PARTS
 10
  9.5000
 20
  4.0000
 30
0.0
 0
SEQEND
 8
PARTS
 0
POLYLINE
 8
PARTS
 66
1
 70
1
 10
0.0
 20
0.0
 30
0.0
 0
VERTEX
 8
PARTS
 10
  9.5300
 20
  4.0700
 30
0.0
 42
  0.0985
 0
VERTEX
 8
PARTS
 10
  9.5277
 20
  4.0815
 30
0.0
 42
  0.0985
 0
VERTEX
 8
PARTS
 10
  9.5212
 20
  4.0912
 30
0.0
 42
  0.0985
 0
VERTEX
 8
PARTS
 10
  9.5115
 20
  4.0977
 30
0.0
 42
  0.0985
 0
VERTEX
 8
PARTS
 10
  9.5000
 20
  4.1000
 30
0.0
 42
  0.0985
 0
VERTEX
 8
PARTS
 10
  9.4885
 20
  4.0977
 30
0.0
 42
  0.0985
 0
VERTEX
 8
PARTS
 10
  9.4788
 20
  4.0912
 30
0.0
 42
  0.0985
 0
VERTEX
 8
PARTS
 10
  9.4723
 20
  4.0815
 30
0.0
 42
  0.0985
 0
VERTEX
 8
PARTS
 10
  9.4700
 20
  4.0700
 30
0.0
 42
  0.0985
 0
VERTEX
 8
PARTS
 10
  9.4723
 20
  4.0585
 30
0.0
 42
  0.0985
 0
VERTEX
 8
PARTS
 10
  9.4788
 20
  4.0488
 30
0.0
 42
  0.0985
 0
VERTEX
 8
PARTS
 10
  9.4885
 20
  4.0423
 30
0.0
 42
  0.0985
 0
VERTEX
 8
PARTS
 10
  9.5000
 20
  4.0400
 30
0.0
 42
  0.0985
 0
VERTEX
 8
PARTS
 10
  9.5115
 20
  4.0423
 30
0.0
 42
  0.0985
 0
VERTEX
 8
PARTS
 10
  9.5212
 20
  4.0488
 30
0.0
 42
  0.0985
 0
VERTEX
 8
PARTS
 10
  9.5277
 20
  4.0585
 30
0.0
 42
  0.0985
 0
SEQEND
 8
PARTS
 0
TEXT
 8
PARTTEXT
 10
  6.6000
 20
  8.5786
 30
0.0
 40
  0.0514
 1
VCC
 0
POLYLINE
 8
PARTS
 66
1
 10
0.0
 20
0.0
 30
0.0
 0
VERTEX
 8
PARTS
 10
  6.8600
 20
  8.7000
 30
0.0
 0
VERTEX
 8
PARTS
 10
  6.9000
 20
  8.7000
 30
0.0
 0
SEQEND
 8
PARTS
 0
POLYLINE
 8
PARTS
 66
1
 70
1
 10
0.0
 20
0.0
 30
0.0
 0
VERTEX
 8
PARTS
 10
  6.8600
 20
  8.7000
 30
0.0
 42
  0.0985
 0
VERTEX
 8
PARTS
 10
  6.8577
 20
  8.7115
 30
0.0
 42
  0.0985
 0
VERTEX
 8
PARTS
 10
  6.8512
 20
  8.7212
 30
0.0
 42
  0.0985
 0
VERTEX
 8
PARTS
 10
  6.8415
 20
  8.7277
 30
0.0
 42
  0.0985
 0
VERTEX
 8
PARTS
 10
  6.8300
 20
  8.7300
 30
0.0
 42
  0.0985
 0
VERTEX
 8
PARTS
 10
  6.8185
 20
  8.7277
 30
0.0
 42
  0.0985
 0
VERTEX
 8
PARTS
 10
  6.8088
 20
  8.7212
 30
0.0
 42
  0.0985
 0
VERTEX
 8
PARTS
 10
  6.8023
 20
  8.7115
 30
0.0
 42
  0.0985
 0
VERTEX
 8
PARTS
 10
  6.8000
 20
  8.7000
 30
0.0
 42
  0.0985
 0
VERTEX
 8
PARTS
 10
  6.8023
 20
  8.6885
 30
0.0
 42
  0.0985
 0
VERTEX
 8
PARTS
 10
  6.8088
 20
  8.6788
 30
0.0
 42
  0.0985
 0
VERTEX
 8
PARTS
 10
  6.8185
 20
  8.6723
 30
0.0
 42
  0.0985
 0
VERTEX
 8
PARTS
 10
  6.8300
 20
  8.6700
 30
0.0
 42
  0.0985
 0
VERTEX
 8
PARTS
 10
  6.8415
 20
  8.6723
 30
0.0
 42
  0.0985
 0
VERTEX
 8
PARTS
 10
  6.8512
 20
  8.6788
 30
0.0
 42
  0.0985
 0
VERTEX
 8
PARTS
 10
  6.8577
 20
  8.6885
 30
0.0
 42
  0.0985
 0
SEQEND
 8
PARTS
 0
TEXT
 8
PARTTEXT
 10
  5.0000
 20
  6.2786
 30
0.0
 40
  0.0514
 1
VCC
 0
POLYLINE
 8
PARTS
 66
1
 10
0.0
 20
0.0
 30
0.0
 0
VERTEX
 8
PARTS
 10
  5.2600
 20
  6.4000
 30
0.0
 0
VERTEX
 8
PARTS
 10
  5.3000
 20
  6.4000
 30
0.0
 0
SEQEND
 8
PARTS
 0
POLYLINE
 8
PARTS
 66
1
 70
1
 10
0.0
 20
0.0
 30
0.0
 0
VERTEX
 8
PARTS
 10
  5.2600
 20
  6.4000
 30
0.0
 42
  0.0985
 0
VERTEX
 8
PARTS
 10
  5.2577
 20
  6.4115
 30
0.0
 42
  0.0985
 0
VERTEX
 8
PARTS
 10
  5.2512
 20
  6.4212
 30
0.0
 42
  0.0985
 0
VERTEX
 8
PARTS
 10
  5.2415
 20
  6.4277
 30
0.0
 42
  0.0985
 0
VERTEX
 8
PARTS
 10
  5.2300
 20
  6.4300
 30
0.0
 42
  0.0985
 0
VERTEX
 8
PARTS
 10
  5.2185
 20
  6.4277
 30
0.0
 42
  0.0985
 0
VERTEX
 8
PARTS
 10
  5.2088
 20
  6.4212
 30
0.0
 42
  0.0985
 0
VERTEX
 8
PARTS
 10
  5.2023
 20
  6.4115
 30
0.0
 42
  0.0985
 0
VERTEX
 8
PARTS
 10
  5.2000
 20
  6.4000
 30
0.0
 42
  0.0985
 0
VERTEX
 8
PARTS
 10
  5.2023
 20
  6.3885
 30
0.0
 42
  0.0985
 0
VERTEX
 8
PARTS
 10
  5.2088
 20
  6.3788
 30
0.0
 42
  0.0985
 0
VERTEX
 8
PARTS
 10
  5.2185
 20
  6.3723
 30
0.0
 42
  0.0985
 0
VERTEX
 8
PARTS
 10
  5.2300
 20
  6.3700
 30
0.0
 42
  0.0985
 0
VERTEX
 8
PARTS
 10
  5.2415
 20
  6.3723
 30
0.0
 42
  0.0985
 0
VERTEX
 8
PARTS
 10
  5.2512
 20
  6.3788
 30
0.0
 42
  0.0985
 0
VERTEX
 8
PARTS
 10
  5.2577
 20
  6.3885
 30
0.0
 42
  0.0985
 0
SEQEND
 8
PARTS
 0
TEXT
 8
PARTTEXT
 10
  3.6200
 20
  5.3686
 30
0.0
 40
  0.0514
 1
TICK_INT*
 0
POLYLINE
 8
PARTS
 66
1
 10
0.0
 20
0.0
 30
0.0
 0
VERTEX
 8
PARTS
 10
  3.3000
 20
  5.4000
 30
0.0
 0
VERTEX
 8
PARTS
 10
  3.4000
 20
  5.4500
 30
0.0
 0
SEQEND
 8
PARTS
 0
POLYLINE
 8
PARTS
 66
1
 10
0.0
 20
0.0
 30
0.0
 0
VERTEX
 8
PARTS
 10
  3.4000
 20
  5.4500
 30
0.0
 0
VERTEX
 8
PARTS
 10
  3.6000
 20
  5.4500
 30
0.0
 0
SEQEND
 8
PARTS
 0
POLYLINE
 8
PARTS
 66
1
 10
0.0
 20
0.0
 30
0.0
 0
VERTEX
 8
PARTS
 10
  3.6000
 20
  5.4500
 30
0.0
 0
VERTEX
 8
PARTS
 10
  3.6000
 20
  5.3500
 30
0.0
 0
SEQEND
 8
PARTS
 0
POLYLINE
 8
PARTS
 66
1
 10
0.0
 20
0.0
 30
0.0
 0
VERTEX
 8
PARTS
 10
  3.6000
 20
  5.3500
 30
0.0
 0
VERTEX
 8
PARTS
 10
  3.4000
 20
  5.3500
 30
0.0
 0
SEQEND
 8
PARTS
 0
POLYLINE
 8
PARTS
 66
1
 10
0.0
 20
0.0
 30
0.0
 0
VERTEX
 8
PARTS
 10
  3.4000
 20
  5.3500
 30
0.0
 0
VERTEX
 8
PARTS
 10
  3.3000
 20
  5.4000
 30
0.0
 0
SEQEND
 8
PARTS
 0
TEXT
 8
PARTTEXT
 10
  9.6200
 20
  8.1686
 30
0.0
 40
  0.0514
 1
NoClock
 0
POLYLINE
 8
PARTS
 66
1
 10
0.0
 20
0.0
 30
0.0
 0
VERTEX
 8
PARTS
 10
  9.3000
 20
  8.2000
 30
0.0
 0
VERTEX
 8
PARTS
 10
  9.4000
 20
  8.2500
 30
0.0
 0
SEQEND
 8
PARTS
 0
POLYLINE
 8
PARTS
 66
1
 10
0.0
 20
0.0
 30
0.0
 0
VERTEX
 8
PARTS
 10
  9.4000
 20
  8.2500
 30
0.0
 0
VERTEX
 8
PARTS
 10
  9.6000
 20
  8.2500
 30
0.0
 0
SEQEND
 8
PARTS
 0
POLYLINE
 8
PARTS
 66
1
 10
0.0
 20
0.0
 30
0.0
 0
VERTEX
 8
PARTS
 10
  9.6000
 20
  8.2500
 30
0.0
 0
VERTEX
 8
PARTS
 10
  9.6000
 20
  8.1500
 30
0.0
 0
SEQEND
 8
PARTS
 0
POLYLINE
 8
PARTS
 66
1
 10
0.0
 20
0.0
 30
0.0
 0
VERTEX
 8
PARTS
 10
  9.6000
 20
  8.1500
 30
0.0
 0
VERTEX
 8
PARTS
 10
  9.4000
 20
  8.1500
 30
0.0
 0
SEQEND
 8
PARTS
 0
POLYLINE
 8
PARTS
 66
1
 10
0.0
 20
0.0
 30
0.0
 0
VERTEX
 8
PARTS
 10
  9.4000
 20
  8.1500
 30
0.0
 0
VERTEX
 8
PARTS
 10
  9.3000
 20
  8.2000
 30
0.0
 0
SEQEND
 8
PARTS
 0
TEXT
 8
PARTTEXT
 10
  4.8200
 20
  5.7686
 30
0.0
 40
  0.0514
 1
Trig
 0
POLYLINE
 8
PARTS
 66
1
 10
0.0
 20
0.0
 30
0.0
 0
VERTEX
 8
PARTS
 10
  4.5000
 20
  5.8000
 30
0.0
 0
VERTEX
 8
PARTS
 10
  4.6000
 20
  5.8500
 30
0.0
 0
SEQEND
 8
PARTS
 0
POLYLINE
 8
PARTS
 66
1
 10
0.0
 20
0.0
 30
0.0
 0
VERTEX
 8
PARTS
 10
  4.6000
 20
  5.8500
 30
0.0
 0
VERTEX
 8
PARTS
 10
  4.8000
 20
  5.8500
 30
0.0
 0
SEQEND
 8
PARTS
 0
POLYLINE
 8
PARTS
 66
1
 10
0.0
 20
0.0
 30
0.0
 0
VERTEX
 8
PARTS
 10
  4.8000
 20
  5.8500
 30
0.0
 0
VERTEX
 8
PARTS
 10
  4.8000
 20
  5.7500
 30
0.0
 0
SEQEND
 8
PARTS
 0
POLYLINE
 8
PARTS
 66
1
 10
0.0
 20
0.0
 30
0.0
 0
VERTEX
 8
PARTS
 10
  4.8000
 20
  5.7500
 30
0.0
 0
VERTEX
 8
PARTS
 10
  4.6000
 20
  5.7500
 30
0.0
 0
SEQEND
 8
PARTS
 0
POLYLINE
 8
PARTS
 66
1
 10
0.0
 20
0.0
 30
0.0
 0
VERTEX
 8
PARTS
 10
  4.6000
 20
  5.7500
 30
0.0
 0
VERTEX
 8
PARTS
 10
  4.5000
 20
  5.8000
 30
0.0
 0
SEQEND
 8
PARTS
 0
TEXT
 8
PARTTEXT
 10
  8.0200
 20
  5.8686
 30
0.0
 40
  0.0514
 1
NoTick
 0
POLYLINE
 8
PARTS
 66
1
 10
0.0
 20
0.0
 30
0.0
 0
VERTEX
 8
PARTS
 10
  7.7000
 20
  5.9000
 30
0.0
 0
VERTEX
 8
PARTS
 10
  7.8000
 20
  5.9500
 30
0.0
 0
SEQEND
 8
PARTS
 0
POLYLINE
 8
PARTS
 66
1
 10
0.0
 20
0.0
 30
0.0
 0
VERTEX
 8
PARTS
 10
  7.8000
 20
  5.9500
 30
0.0
 0
VERTEX
 8
PARTS
 10
  8.0000
 20
  5.9500
 30
0.0
 0
SEQEND
 8
PARTS
 0
POLYLINE
 8
PARTS
 66
1
 10
0.0
 20
0.0
 30
0.0
 0
VERTEX
 8
PARTS
 10
  8.0000
 20
  5.9500
 30
0.0
 0
VERTEX
 8
PARTS
 10
  8.0000
 20
  5.8500
 30
0.0
 0
SEQEND
 8
PARTS
 0
POLYLINE
 8
PARTS
 66
1
 10
0.0
 20
0.0
 30
0.0
 0
VERTEX
 8
PARTS
 10
  8.0000
 20
  5.8500
 30
0.0
 0
VERTEX
 8
PARTS
 10
  7.8000
 20
  5.8500
 30
0.0
 0
SEQEND
 8
PARTS
 0
POLYLINE
 8
PARTS
 66
1
 10
0.0
 20
0.0
 30
0.0
 0
VERTEX
 8
PARTS
 10
  7.8000
 20
  5.8500
 30
0.0
 0
VERTEX
 8
PARTS
 10
  7.7000
 20
  5.9000
 30
0.0
 0
SEQEND
 8
PARTS
 0
TEXT
 8
PARTTEXT
 10
  6.5200
 20
  8.0686
 30
0.0
 40
  0.0514
 1
SystemClk
 0
POLYLINE
 8
PARTS
 66
1
 10
0.0
 20
0.0
 30
0.0
 0
VERTEX
 8
PARTS
 10
  6.2000
 20
  8.1000
 30
0.0
 0
VERTEX
 8
PARTS
 10
  6.3000
 20
  8.1500
 30
0.0
 0
SEQEND
 8
PARTS
 0
POLYLINE
 8
PARTS
 66
1
 10
0.0
 20
0.0
 30
0.0
 0
VERTEX
 8
PARTS
 10
  6.3000
 20
  8.1500
 30
0.0
 0
VERTEX
 8
PARTS
 10
  6.5000
 20
  8.1500
 30
0.0
 0
SEQEND
 8
PARTS
 0
POLYLINE
 8
PARTS
 66
1
 10
0.0
 20
0.0
 30
0.0
 0
VERTEX
 8
PARTS
 10
  6.5000
 20
  8.1500
 30
0.0
 0
VERTEX
 8
PARTS
 10
  6.5000
 20
  8.0500
 30
0.0
 0
SEQEND
 8
PARTS
 0
POLYLINE
 8
PARTS
 66
1
 10
0.0
 20
0.0
 30
0.0
 0
VERTEX
 8
PARTS
 10
  6.5000
 20
  8.0500
 30
0.0
 0
VERTEX
 8
PARTS
 10
  6.3000
 20
  8.0500
 30
0.0
 0
SEQEND
 8
PARTS
 0
POLYLINE
 8
PARTS
 66
1
 10
0.0
 20
0.0
 30
0.0
 0
VERTEX
 8
PARTS
 10
  6.3000
 20
  8.0500
 30
0.0
 0
VERTEX
 8
PARTS
 10
  6.2000
 20
  8.1000
 30
0.0
 0
SEQEND
 8
PARTS
 0
TEXT
 8
PARTTEXT
 10
  0.7900
 20
  5.9586
 30
0.0
 40
  0.0514
 1
1sTick
 0
POLYLINE
 8
PARTS
 66
1
 10
0.0
 20
0.0
 30
0.0
 0
VERTEX
 8
PARTS
 10
  1.1000
 20
  6.0500
 30
0.0
 0
VERTEX
 8
PARTS
 10
  1.3000
 20
  6.0500
 30
0.0
 0
SEQEND
 8
PARTS
 0
POLYLINE
 8
PARTS
 66
1
 10
0.0
 20
0.0
 30
0.0
 0
VERTEX
 8
PARTS
 10
  1.3000
 20
  6.0500
 30
0.0
 0
VERTEX
 8
PARTS
 10
  1.4000
 20
  6.0000
 30
0.0
 0
SEQEND
 8
PARTS
 0
POLYLINE
 8
PARTS
 66
1
 10
0.0
 20
0.0
 30
0.0
 0
VERTEX
 8
PARTS
 10
  1.4000
 20
  6.0000
 30
0.0
 0
VERTEX
 8
PARTS
 10
  1.3000
 20
  5.9500
 30
0.0
 0
SEQEND
 8
PARTS
 0
POLYLINE
 8
PARTS
 66
1
 10
0.0
 20
0.0
 30
0.0
 0
VERTEX
 8
PARTS
 10
  1.3000
 20
  5.9500
 30
0.0
 0
VERTEX
 8
PARTS
 10
  1.1000
 20
  5.9500
 30
0.0
 0
SEQEND
 8
PARTS
 0
POLYLINE
 8
PARTS
 66
1
 10
0.0
 20
0.0
 30
0.0
 0
VERTEX
 8
PARTS
 10
  1.1000
 20
  5.9500
 30
0.0
 0
VERTEX
 8
PARTS
 10
  1.1000
 20
  6.0500
 30
0.0
 0
SEQEND
 8
PARTS
 0
TEXT
 8
PARTTEXT
 10
 11.7200
 20
  7.8686
 30
0.0
 40
  0.0514
 1
PU
 0
POLYLINE
 8
PARTS
 66
1
 10
0.0
 20
0.0
 30
0.0
 0
VERTEX
 8
PARTS
 10
 11.4000
 20
  7.9000
 30
0.0
 0
VERTEX
 8
PARTS
 10
 11.5000
 20
  7.9500
 30
0.0
 0
SEQEND
 8
PARTS
 0
POLYLINE
 8
PARTS
 66
1
 10
0.0
 20
0.0
 30
0.0
 0
VERTEX
 8
PARTS
 10
 11.5000
 20
  7.9500
 30
0.0
 0
VERTEX
 8
PARTS
 10
 11.7000
 20
  7.9500
 30
0.0
 0
SEQEND
 8
PARTS
 0
POLYLINE
 8
PARTS
 66
1
 10
0.0
 20
0.0
 30
0.0
 0
VERTEX
 8
PARTS
 10
 11.7000
 20
  7.9500
 30
0.0
 0
VERTEX
 8
PARTS
 10
 11.7000
 20
  7.8500
 30
0.0
 0
SEQEND
 8
PARTS
 0
POLYLINE
 8
PARTS
 66
1
 10
0.0
 20
0.0
 30
0.0
 0
VERTEX
 8
PARTS
 10
 11.7000
 20
  7.8500
 30
0.0
 0
VERTEX
 8
PARTS
 10
 11.5000
 20
  7.8500
 30
0.0
 0
SEQEND
 8
PARTS
 0
POLYLINE
 8
PARTS
 66
1
 10
0.0
 20
0.0
 30
0.0
 0
VERTEX
 8
PARTS
 10
 11.5000
 20
  7.8500
 30
0.0
 0
VERTEX
 8
PARTS
 10
 11.4000
 20
  7.9000
 30
0.0
 0
SEQEND
 8
PARTS
 0
TEXT
 8
PARTTEXT
 10
  1.6300
 20
  7.6586
 30
0.0
 40
  0.0514
 1
50MHz+
 0
POLYLINE
 8
PARTS
 66
1
 10
0.0
 20
0.0
 30
0.0
 0
VERTEX
 8
PARTS
 10
  2.0000
 20
  7.7500
 30
0.0
 0
VERTEX
 8
PARTS
 10
  2.2000
 20
  7.7500
 30
0.0
 0
SEQEND
 8
PARTS
 0
POLYLINE
 8
PARTS
 66
1
 10
0.0
 20
0.0
 30
0.0
 0
VERTEX
 8
PARTS
 10
  2.2000
 20
  7.7500
 30
0.0
 0
VERTEX
 8
PARTS
 10
  2.3000
 20
  7.7000
 30
0.0
 0
SEQEND
 8
PARTS
 0
POLYLINE
 8
PARTS
 66
1
 10
0.0
 20
0.0
 30
0.0
 0
VERTEX
 8
PARTS
 10
  2.3000
 20
  7.7000
 30
0.0
 0
VERTEX
 8
PARTS
 10
  2.2000
 20
  7.6500
 30
0.0
 0
SEQEND
 8
PARTS
 0
POLYLINE
 8
PARTS
 66
1
 10
0.0
 20
0.0
 30
0.0
 0
VERTEX
 8
PARTS
 10
  2.2000
 20
  7.6500
 30
0.0
 0
VERTEX
 8
PARTS
 10
  2.0000
 20
  7.6500
 30
0.0
 0
SEQEND
 8
PARTS
 0
POLYLINE
 8
PARTS
 66
1
 10
0.0
 20
0.0
 30
0.0
 0
VERTEX
 8
PARTS
 10
  2.0000
 20
  7.6500
 30
0.0
 0
VERTEX
 8
PARTS
 10
  2.0000
 20
  7.7500
 30
0.0
 0
SEQEND
 8
PARTS
 0
TEXT
 8
PARTTEXT
 10
  1.6500
 20
  8.1586
 30
0.0
 40
  0.0514
 1
50MHz-
 0
POLYLINE
 8
PARTS
 66
1
 10
0.0
 20
0.0
 30
0.0
 0
VERTEX
 8
PARTS
 10
  2.0000
 20
  8.2500
 30
0.0
 0
VERTEX
 8
PARTS
 10
  2.2000
 20
  8.2500
 30
0.0
 0
SEQEND
 8
PARTS
 0
POLYLINE
 8
PARTS
 66
1
 10
0.0
 20
0.0
 30
0.0
 0
VERTEX
 8
PARTS
 10
  2.2000
 20
  8.2500
 30
0.0
 0
VERTEX
 8
PARTS
 10
  2.3000
 20
  8.2000
 30
0.0
 0
SEQEND
 8
PARTS
 0
POLYLINE
 8
PARTS
 66
1
 10
0.0
 20
0.0
 30
0.0
 0
VERTEX
 8
PARTS
 10
  2.3000
 20
  8.2000
 30
0.0
 0
VERTEX
 8
PARTS
 10
  2.2000
 20
  8.1500
 30
0.0
 0
SEQEND
 8
PARTS
 0
POLYLINE
 8
PARTS
 66
1
 10
0.0
 20
0.0
 30
0.0
 0
VERTEX
 8
PARTS
 10
  2.2000
 20
  8.1500
 30
0.0
 0
VERTEX
 8
PARTS
 10
  2.0000
 20
  8.1500
 30
0.0
 0
SEQEND
 8
PARTS
 0
POLYLINE
 8
PARTS
 66
1
 10
0.0
 20
0.0
 30
0.0
 0
VERTEX
 8
PARTS
 10
  2.0000
 20
  8.1500
 30
0.0
 0
VERTEX
 8
PARTS
 10
  2.0000
 20
  8.2500
 30
0.0
 0
SEQEND
 8
PARTS
 0
TEXT
 8
PARTTEXT
 10
  3.7100
 20
  4.4586
 30
0.0
 40
  0.0514
 1
XferLED
 0
POLYLINE
 8
PARTS
 66
1
 10
0.0
 20
0.0
 30
0.0
 0
VERTEX
 8
PARTS
 10
  4.1000
 20
  4.5500
 30
0.0
 0
VERTEX
 8
PARTS
 10
  4.3000
 20
  4.5500
 30
0.0
 0
SEQEND
 8
PARTS
 0
POLYLINE
 8
PARTS
 66
1
 10
0.0
 20
0.0
 30
0.0
 0
VERTEX
 8
PARTS
 10
  4.3000
 20
  4.5500
 30
0.0
 0
VERTEX
 8
PARTS
 10
  4.4000
 20
  4.5000
 30
0.0
 0
SEQEND
 8
PARTS
 0
POLYLINE
 8
PARTS
 66
1
 10
0.0
 20
0.0
 30
0.0
 0
VERTEX
 8
PARTS
 10
  4.4000
 20
  4.5000
 30
0.0
 0
VERTEX
 8
PARTS
 10
  4.3000
 20
  4.4500
 30
0.0
 0
SEQEND
 8
PARTS
 0
POLYLINE
 8
PARTS
 66
1
 10
0.0
 20
0.0
 30
0.0
 0
VERTEX
 8
PARTS
 10
  4.3000
 20
  4.4500
 30
0.0
 0
VERTEX
 8
PARTS
 10
  4.1000
 20
  4.4500
 30
0.0
 0
SEQEND
 8
PARTS
 0
POLYLINE
 8
PARTS
 66
1
 10
0.0
 20
0.0
 30
0.0
 0
VERTEX
 8
PARTS
 10
  4.1000
 20
  4.4500
 30
0.0
 0
VERTEX
 8
PARTS
 10
  4.1000
 20
  4.5500
 30
0.0
 0
SEQEND
 8
PARTS
 0
TEXT
 8
PARTTEXT
 10
  6.9700
 20
  3.8586
 30
0.0
 40
  0.0514
 1
XmitLED-
 0
POLYLINE
 8
PARTS
 66
1
 10
0.0
 20
0.0
 30
0.0
 0
VERTEX
 8
PARTS
 10
  7.1000
 20
  3.8000
 30
0.0
 0
VERTEX
 8
PARTS
 10
  7.2000
 20
  3.8500
 30
0.0
 0
SEQEND
 8
PARTS
 0
POLYLINE
 8
PARTS
 66
1
 10
0.0
 20
0.0
 30
0.0
 0
VERTEX
 8
PARTS
 10
  7.2000
 20
  3.8500
 30
0.0
 0
VERTEX
 8
PARTS
 10
  7.3000
 20
  3.8500
 30
0.0
 0
SEQEND
 8
PARTS
 0
POLYLINE
 8
PARTS
 66
1
 10
0.0
 20
0.0
 30
0.0
 0
VERTEX
 8
PARTS
 10
  7.3000
 20
  3.8500
 30
0.0
 0
VERTEX
 8
PARTS
 10
  7.4000
 20
  3.8000
 30
0.0
 0
SEQEND
 8
PARTS
 0
POLYLINE
 8
PARTS
 66
1
 10
0.0
 20
0.0
 30
0.0
 0
VERTEX
 8
PARTS
 10
  7.4000
 20
  3.8000
 30
0.0
 0
VERTEX
 8
PARTS
 10
  7.3000
 20
  3.7500
 30
0.0
 0
SEQEND
 8
PARTS
 0
POLYLINE
 8
PARTS
 66
1
 10
0.0
 20
0.0
 30
0.0
 0
VERTEX
 8
PARTS
 10
  7.3000
 20
  3.7500
 30
0.0
 0
VERTEX
 8
PARTS
 10
  7.2000
 20
  3.7500
 30
0.0
 0
SEQEND
 8
PARTS
 0
POLYLINE
 8
PARTS
 66
1
 10
0.0
 20
0.0
 30
0.0
 0
VERTEX
 8
PARTS
 10
  7.2000
 20
  3.7500
 30
0.0
 0
VERTEX
 8
PARTS
 10
  7.1000
 20
  3.8000
 30
0.0
 0
SEQEND
 8
PARTS
 0
TEXT
 8
PARTTEXT
 10
  6.4200
 20
  3.8686
 30
0.0
 40
  0.0514
 1
XmitLED-
 0
POLYLINE
 8
PARTS
 66
1
 10
0.0
 20
0.0
 30
0.0
 0
VERTEX
 8
PARTS
 10
  6.5000
 20
  3.8000
 30
0.0
 0
VERTEX
 8
PARTS
 10
  6.6000
 20
  3.8500
 30
0.0
 0
SEQEND
 8
PARTS
 0
POLYLINE
 8
PARTS
 66
1
 10
0.0
 20
0.0
 30
0.0
 0
VERTEX
 8
PARTS
 10
  6.6000
 20
  3.8500
 30
0.0
 0
VERTEX
 8
PARTS
 10
  6.7000
 20
  3.8500
 30
0.0
 0
SEQEND
 8
PARTS
 0
POLYLINE
 8
PARTS
 66
1
 10
0.0
 20
0.0
 30
0.0
 0
VERTEX
 8
PARTS
 10
  6.7000
 20
  3.8500
 30
0.0
 0
VERTEX
 8
PARTS
 10
  6.8000
 20
  3.8000
 30
0.0
 0
SEQEND
 8
PARTS
 0
POLYLINE
 8
PARTS
 66
1
 10
0.0
 20
0.0
 30
0.0
 0
VERTEX
 8
PARTS
 10
  6.8000
 20
  3.8000
 30
0.0
 0
VERTEX
 8
PARTS
 10
  6.7000
 20
  3.7500
 30
0.0
 0
SEQEND
 8
PARTS
 0
POLYLINE
 8
PARTS
 66
1
 10
0.0
 20
0.0
 30
0.0
 0
VERTEX
 8
PARTS
 10
  6.7000
 20
  3.7500
 30
0.0
 0
VERTEX
 8
PARTS
 10
  6.6000
 20
  3.7500
 30
0.0
 0
SEQEND
 8
PARTS
 0
POLYLINE
 8
PARTS
 66
1
 10
0.0
 20
0.0
 30
0.0
 0
VERTEX
 8
PARTS
 10
  6.6000
 20
  3.7500
 30
0.0
 0
VERTEX
 8
PARTS
 10
  6.5000
 20
  3.8000
 30
0.0
 0
SEQEND
 8
PARTS
 0
TEXT
 8
PARTTEXT
 10
  8.5500
 20
  3.8586
 30
0.0
 40
  0.0514
 1
XmitLED+
 0
POLYLINE
 8
PARTS
 66
1
 10
0.0
 20
0.0
 30
0.0
 0
VERTEX
 8
PARTS
 10
  8.6000
 20
  3.8000
 30
0.0
 0
VERTEX
 8
PARTS
 10
  8.7000
 20
  3.8500
 30
0.0
 0
SEQEND
 8
PARTS
 0
POLYLINE
 8
PARTS
 66
1
 10
0.0
 20
0.0
 30
0.0
 0
VERTEX
 8
PARTS
 10
  8.7000
 20
  3.8500
 30
0.0
 0
VERTEX
 8
PARTS
 10
  8.8000
 20
  3.8500
 30
0.0
 0
SEQEND
 8
PARTS
 0
POLYLINE
 8
PARTS
 66
1
 10
0.0
 20
0.0
 30
0.0
 0
VERTEX
 8
PARTS
 10
  8.8000
 20
  3.8500
 30
0.0
 0
VERTEX
 8
PARTS
 10
  8.9000
 20
  3.8000
 30
0.0
 0
SEQEND
 8
PARTS
 0
POLYLINE
 8
PARTS
 66
1
 10
0.0
 20
0.0
 30
0.0
 0
VERTEX
 8
PARTS
 10
  8.9000
 20
  3.8000
 30
0.0
 0
VERTEX
 8
PARTS
 10
  8.8000
 20
  3.7500
 30
0.0
 0
SEQEND
 8
PARTS
 0
POLYLINE
 8
PARTS
 66
1
 10
0.0
 20
0.0
 30
0.0
 0
VERTEX
 8
PARTS
 10
  8.8000
 20
  3.7500
 30
0.0
 0
VERTEX
 8
PARTS
 10
  8.7000
 20
  3.7500
 30
0.0
 0
SEQEND
 8
PARTS
 0
POLYLINE
 8
PARTS
 66
1
 10
0.0
 20
0.0
 30
0.0
 0
VERTEX
 8
PARTS
 10
  8.7000
 20
  3.7500
 30
0.0
 0
VERTEX
 8
PARTS
 10
  8.6000
 20
  3.8000
 30
0.0
 0
SEQEND
 8
PARTS
 0
TEXT
 8
PARTTEXT
 10
  7.9200
 20
  3.8686
 30
0.0
 40
  0.0514
 1
XmitLED+
 0
POLYLINE
 8
PARTS
 66
1
 10
0.0
 20
0.0
 30
0.0
 0
VERTEX
 8
PARTS
 10
  8.0000
 20
  3.8000
 30
0.0
 0
VERTEX
 8
PARTS
 10
  8.1000
 20
  3.8500
 30
0.0
 0
SEQEND
 8
PARTS
 0
POLYLINE
 8
PARTS
 66
1
 10
0.0
 20
0.0
 30
0.0
 0
VERTEX
 8
PARTS
 10
  8.1000
 20
  3.8500
 30
0.0
 0
VERTEX
 8
PARTS
 10
  8.2000
 20
  3.8500
 30
0.0
 0
SEQEND
 8
PARTS
 0
POLYLINE
 8
PARTS
 66
1
 10
0.0
 20
0.0
 30
0.0
 0
VERTEX
 8
PARTS
 10
  8.2000
 20
  3.8500
 30
0.0
 0
VERTEX
 8
PARTS
 10
  8.3000
 20
  3.8000
 30
0.0
 0
SEQEND
 8
PARTS
 0
POLYLINE
 8
PARTS
 66
1
 10
0.0
 20
0.0
 30
0.0
 0
VERTEX
 8
PARTS
 10
  8.3000
 20
  3.8000
 30
0.0
 0
VERTEX
 8
PARTS
 10
  8.2000
 20
  3.7500
 30
0.0
 0
SEQEND
 8
PARTS
 0
POLYLINE
 8
PARTS
 66
1
 10
0.0
 20
0.0
 30
0.0
 0
VERTEX
 8
PARTS
 10
  8.2000
 20
  3.7500
 30
0.0
 0
VERTEX
 8
PARTS
 10
  8.1000
 20
  3.7500
 30
0.0
 0
SEQEND
 8
PARTS
 0
POLYLINE
 8
PARTS
 66
1
 10
0.0
 20
0.0
 30
0.0
 0
VERTEX
 8
PARTS
 10
  8.1000
 20
  3.7500
 30
0.0
 0
VERTEX
 8
PARTS
 10
  8.0000
 20
  3.8000
 30
0.0
 0
SEQEND
 8
PARTS
 0
TEXT
 8
PARTTEXT
 10
  5.9700
 20
  4.5586
 30
0.0
 40
  0.0514
 1
RcvLED-
 0
POLYLINE
 8
PARTS
 66
1
 10
0.0
 20
0.0
 30
0.0
 0
VERTEX
 8
PARTS
 10
  6.0000
 20
  4.5000
 30
0.0
 0
VERTEX
 8
PARTS
 10
  6.1000
 20
  4.5500
 30
0.0
 0
SEQEND
 8
PARTS
 0
POLYLINE
 8
PARTS
 66
1
 10
0.0
 20
0.0
 30
0.0
 0
VERTEX
 8
PARTS
 10
  6.1000
 20
  4.5500
 30
0.0
 0
VERTEX
 8
PARTS
 10
  6.2000
 20
  4.5500
 30
0.0
 0
SEQEND
 8
PARTS
 0
POLYLINE
 8
PARTS
 66
1
 10
0.0
 20
0.0
 30
0.0
 0
VERTEX
 8
PARTS
 10
  6.2000
 20
  4.5500
 30
0.0
 0
VERTEX
 8
PARTS
 10
  6.3000
 20
  4.5000
 30
0.0
 0
SEQEND
 8
PARTS
 0
POLYLINE
 8
PARTS
 66
1
 10
0.0
 20
0.0
 30
0.0
 0
VERTEX
 8
PARTS
 10
  6.3000
 20
  4.5000
 30
0.0
 0
VERTEX
 8
PARTS
 10
  6.2000
 20
  4.4500
 30
0.0
 0
SEQEND
 8
PARTS
 0
POLYLINE
 8
PARTS
 66
1
 10
0.0
 20
0.0
 30
0.0
 0
VERTEX
 8
PARTS
 10
  6.2000
 20
  4.4500
 30
0.0
 0
VERTEX
 8
PARTS
 10
  6.1000
 20
  4.4500
 30
0.0
 0
SEQEND
 8
PARTS
 0
POLYLINE
 8
PARTS
 66
1
 10
0.0
 20
0.0
 30
0.0
 0
VERTEX
 8
PARTS
 10
  6.1000
 20
  4.4500
 30
0.0
 0
VERTEX
 8
PARTS
 10
  6.0000
 20
  4.5000
 30
0.0
 0
SEQEND
 8
PARTS
 0
TEXT
 8
PARTTEXT
 10
  5.4200
 20
  4.5686
 30
0.0
 40
  0.0514
 1
RcvLED-
 0
POLYLINE
 8
PARTS
 66
1
 10
0.0
 20
0.0
 30
0.0
 0
VERTEX
 8
PARTS
 10
  5.5000
 20
  4.5000
 30
0.0
 0
VERTEX
 8
PARTS
 10
  5.6000
 20
  4.5500
 30
0.0
 0
SEQEND
 8
PARTS
 0
POLYLINE
 8
PARTS
 66
1
 10
0.0
 20
0.0
 30
0.0
 0
VERTEX
 8
PARTS
 10
  5.6000
 20
  4.5500
 30
0.0
 0
VERTEX
 8
PARTS
 10
  5.7000
 20
  4.5500
 30
0.0
 0
SEQEND
 8
PARTS
 0
POLYLINE
 8
PARTS
 66
1
 10
0.0
 20
0.0
 30
0.0
 0
VERTEX
 8
PARTS
 10
  5.7000
 20
  4.5500
 30
0.0
 0
VERTEX
 8
PARTS
 10
  5.8000
 20
  4.5000
 30
0.0
 0
SEQEND
 8
PARTS
 0
POLYLINE
 8
PARTS
 66
1
 10
0.0
 20
0.0
 30
0.0
 0
VERTEX
 8
PARTS
 10
  5.8000
 20
  4.5000
 30
0.0
 0
VERTEX
 8
PARTS
 10
  5.7000
 20
  4.4500
 30
0.0
 0
SEQEND
 8
PARTS
 0
POLYLINE
 8
PARTS
 66
1
 10
0.0
 20
0.0
 30
0.0
 0
VERTEX
 8
PARTS
 10
  5.7000
 20
  4.4500
 30
0.0
 0
VERTEX
 8
PARTS
 10
  5.6000
 20
  4.4500
 30
0.0
 0
SEQEND
 8
PARTS
 0
POLYLINE
 8
PARTS
 66
1
 10
0.0
 20
0.0
 30
0.0
 0
VERTEX
 8
PARTS
 10
  5.6000
 20
  4.4500
 30
0.0
 0
VERTEX
 8
PARTS
 10
  5.5000
 20
  4.5000
 30
0.0
 0
SEQEND
 8
PARTS
 0
TEXT
 8
PARTTEXT
 10
  6.8200
 20
  4.5686
 30
0.0
 40
  0.0514
 1
RcvLED+
 0
POLYLINE
 8
PARTS
 66
1
 10
0.0
 20
0.0
 30
0.0
 0
VERTEX
 8
PARTS
 10
  6.9000
 20
  4.5000
 30
0.0
 0
VERTEX
 8
PARTS
 10
  7.0000
 20
  4.5500
 30
0.0
 0
SEQEND
 8
PARTS
 0
POLYLINE
 8
PARTS
 66
1
 10
0.0
 20
0.0
 30
0.0
 0
VERTEX
 8
PARTS
 10
  7.0000
 20
  4.5500
 30
0.0
 0
VERTEX
 8
PARTS
 10
  7.1000
 20
  4.5500
 30
0.0
 0
SEQEND
 8
PARTS
 0
POLYLINE
 8
PARTS
 66
1
 10
0.0
 20
0.0
 30
0.0
 0
VERTEX
 8
PARTS
 10
  7.1000
 20
  4.5500
 30
0.0
 0
VERTEX
 8
PARTS
 10
  7.2000
 20
  4.5000
 30
0.0
 0
SEQEND
 8
PARTS
 0
POLYLINE
 8
PARTS
 66
1
 10
0.0
 20
0.0
 30
0.0
 0
VERTEX
 8
PARTS
 10
  7.2000
 20
  4.5000
 30
0.0
 0
VERTEX
 8
PARTS
 10
  7.1000
 20
  4.4500
 30
0.0
 0
SEQEND
 8
PARTS
 0
POLYLINE
 8
PARTS
 66
1
 10
0.0
 20
0.0
 30
0.0
 0
VERTEX
 8
PARTS
 10
  7.1000
 20
  4.4500
 30
0.0
 0
VERTEX
 8
PARTS
 10
  7.0000
 20
  4.4500
 30
0.0
 0
SEQEND
 8
PARTS
 0
POLYLINE
 8
PARTS
 66
1
 10
0.0
 20
0.0
 30
0.0
 0
VERTEX
 8
PARTS
 10
  7.0000
 20
  4.4500
 30
0.0
 0
VERTEX
 8
PARTS
 10
  6.9000
 20
  4.5000
 30
0.0
 0
SEQEND
 8
PARTS
 0
TEXT
 8
PARTTEXT
 10
  7.3500
 20
  4.5586
 30
0.0
 40
  0.0514
 1
RcvLED+
 0
POLYLINE
 8
PARTS
 66
1
 10
0.0
 20
0.0
 30
0.0
 0
VERTEX
 8
PARTS
 10
  7.4000
 20
  4.5000
 30
0.0
 0
VERTEX
 8
PARTS
 10
  7.5000
 20
  4.5500
 30
0.0
 0
SEQEND
 8
PARTS
 0
POLYLINE
 8
PARTS
 66
1
 10
0.0
 20
0.0
 30
0.0
 0
VERTEX
 8
PARTS
 10
  7.5000
 20
  4.5500
 30
0.0
 0
VERTEX
 8
PARTS
 10
  7.6000
 20
  4.5500
 30
0.0
 0
SEQEND
 8
PARTS
 0
POLYLINE
 8
PARTS
 66
1
 10
0.0
 20
0.0
 30
0.0
 0
VERTEX
 8
PARTS
 10
  7.6000
 20
  4.5500
 30
0.0
 0
VERTEX
 8
PARTS
 10
  7.7000
 20
  4.5000
 30
0.0
 0
SEQEND
 8
PARTS
 0
POLYLINE
 8
PARTS
 66
1
 10
0.0
 20
0.0
 30
0.0
 0
VERTEX
 8
PARTS
 10
  7.7000
 20
  4.5000
 30
0.0
 0
VERTEX
 8
PARTS
 10
  7.6000
 20
  4.4500
 30
0.0
 0
SEQEND
 8
PARTS
 0
POLYLINE
 8
PARTS
 66
1
 10
0.0
 20
0.0
 30
0.0
 0
VERTEX
 8
PARTS
 10
  7.6000
 20
  4.4500
 30
0.0
 0
VERTEX
 8
PARTS
 10
  7.5000
 20
  4.4500
 30
0.0
 0
SEQEND
 8
PARTS
 0
POLYLINE
 8
PARTS
 66
1
 10
0.0
 20
0.0
 30
0.0
 0
VERTEX
 8
PARTS
 10
  7.5000
 20
  4.4500
 30
0.0
 0
VERTEX
 8
PARTS
 10
  7.4000
 20
  4.5000
 30
0.0
 0
SEQEND
 8
PARTS
 0
TEXT
 8
COMMENTS
 10
  2.8000
 20
  7.2186
 30
0.0
 40
  0.0514
 1
MC10125:
 0
TEXT
 8
COMMENTS
 10
  2.8000
 20
  7.1186
 30
0.0
 40
  0.0514
 1
PIN 8 = -5.2V
 0
TEXT
 8
COMMENTS
 10
  2.8000
 20
  7.0186
 30
0.0
 40
  0.0514
 1
PIN 9 = VCC
 0
TEXT
 8
COMMENTS
 10
  2.4000
 20
  8.1186
 30
0.0
 40
  0.0514
 1
15
 0
TEXT
 8
COMMENTS
 10
  2.4000
 20
  7.7186
 30
0.0
 40
  0.0514
 1
2
 0
TEXT
 8
COMMENTS
 10
  1.4000
 20
  6.0186
 30
0.0
 40
  0.0514
 1
6
 0
TEXT
 8
COMMENTS
 10
  1.6000
 20
  6.0186
 30
0.0
 40
  0.0514
 1
11
 0
TEXT
 8
COMMENTS
 10
  1.9000
 20
  5.9186
 30
0.0
 40
  0.0514
 1
10
 0
TEXT
 8
COMMENTS
 10
  1.9000
 20
  5.5186
 30
0.0
 40
  0.0514
 1
7
 0
TEXT
 8
COMMENTS
 10
  6.9000
 20
  8.6186
 30
0.0
 40
  0.0514
 1
3
 0
TEXT
 8
COMMENTS
 10
  7.3000
 20
  8.6186
 30
0.0
 40
  0.0514
 1
13
 0
TEXT
 8
COMMENTS
 10
  7.5000
 20
  8.9186
 30
0.0
 40
  0.0514
 1
4
 0
TEXT
 8
COMMENTS
 10
  7.5000
 20
  8.7186
 30
0.0
 40
  0.0514
 1
12
 0
TEXT
 8
COMMENTS
 10
  5.3000
 20
  6.3186
 30
0.0
 40
  0.0514
 1
2
 0
TEXT
 8
COMMENTS
 10
  5.7000
 20
  6.3186
 30
0.0
 40
  0.0514
 1
15
 0
TEXT
 8
COMMENTS
 10
  5.9000
 20
  6.6186
 30
0.0
 40
  0.0514
 1
1
 0
TEXT
 8
COMMENTS
 10
 11.2000
 20
  8.6186
 30
0.0
 40
  0.0514
 1
9
 0
TEXT
 8
COMMENTS
 10
 11.2000
 20
  8.2186
 30
0.0
 40
  0.0514
 1
8
 0
TEXT
 8
COMMENTS
 10
  5.9000
 20
  6.4186
 30
0.0
 40
  0.0514
 1
16
 0
TEXT
 8
COMMENTS
 10
  8.4000
 20
  4.5186
 30
0.0
 40
  0.0514
 1
DDS'S TO RECEIVER
 0
TEXT
 8
COMMENTS
 10
  9.7000
 20
  3.8186
 30
0.0
 40
  0.0514
 1
DDS'S TO TRANSMITTER
 0
ENDSEC
 0
EOF
